Last Updated: September 20, 2017

Back to Previous Page

SHORELAND BASEBALL LEAGUE, 1967 - 2017
Date(s):   5/1/2014 - 9/8/2014
Contact Info:

General Information
.
==============================================================

-------------Welcome, 2017,

SHORELAND BASEBALL LEAGUE,

==============================================================

2017, SHORELAND BASEBALL LEAGUE,

ALGOMA Guins, --- BRANCH Blaze,

CASCO Athletics, --- KEWAUNEE Chiefs,

DENMARK Devilbears, --- MANITOWOC Heat,

TWO RIVERS Polar Bears,

==============================================================

--------------------------------------------------------------------------------------------------------------

SHORELAND BASEBALL LEAGUE

1967 - 2017

--------------------------------------------------------------------------------------------------------------

-------------------------------------------------------
(Last Updated: September 17th, 2017)
------------------------------------------------------

________________________________________

Teams, VENUES:
-
ALGOMA, Perry Field,
KEWAUNEE, Memorial Field,
CASCO, Village Park,
MANITOWOC, Municipal Field,
TWO RIVERS, Walsh Field,
BRANCH, Recreation Park,
DENMARK, High School Field,
_____________________________________


==============================================================

2017, SHORELAND BASEBALL LEAGUE,

==============================================================

2017, SHORELAND BASEBALL LEAGUE, "FINAL" Standings

------W--L---.PCT----TEAMS
------12---0--1.000-----DENMARK Devilbears
------10---2---.833-----TWO RIVERS Polar Bears
-------8---4---.667-----ALGOMA Guins
-------6---6---.500-----KEWAUNEE Chiefs
-------5---7---.416-----BRANCH Blaze
-------3---9---.250-----CASCO Athletics
-------0--12---.000-----MANITOWOC Heat

[12 Game Season]

--------------------------------------------------------------------------------------------------------------

==============================================================

2017, SCHEDULE & RESULTS

===============================

2017, "Third Edition", of the "SWEET SIXTEEN"

POWER Ratings, Wednesday, September 20th,

(League Games Only) & (Playoff Games)


==============================================================

SATURDAY, MAY 20th, 2017

--------------------------------------------------------------------------------------------------------------
12:00pm, ALGOMA Guins, [-6-] @ BRANCH Blaze, [-0-]
--------------------------------------------------------------------------------------------------------------

==============================================================

WEDNESDAY, MAY 24th, 2017

--------------------------------------------------------------------------------------------------------------
7:30pm, BRANCH Blaze, [-ppd-] @ KEWAUNEE Chiefs, [-ppd-] --- (Wed. July 5th)
--------------------------------------------------------------------------------------------------------------
7:30pm, MANITOWOC Heat, [-ppd-] @ ALGOMA Guins, [-ppd-] --- (Wed. July 5th,)
--------------------------------------------------------------------------------------------------------------

==============================================================

WEDNESDAY, MAY 31st, 2017

--------------------------------------------------------------------------------------------------------------
7:30pm, At Municipal Field,

CASCO Athletics---201-011-210---8-x-x
~@~~~
MANITOWOC Heat---000-240-000---6-x-x
--------------------------------------------------------------------------------------------------------------

==============================================================

FRIDAY, JUNE 2nd, 2017
===============================
-------------------------------------------------------
###############################
[BOX SCORE]
-------------------------------------------------------
7:30pm, "A Kewaunee County Rivalry Game"

At Memorial Field, Kewaunee, --- (7in)

{Games: "3-Stars:

#1 - Alan Wedthond, - (ALG)

#2 - Nick Kita, (ALG)

#3 - Kyle Thompson, (KWC)

-------------------------------------------------------[BOX SCORE]
-
ALGOMA Guins---002-500-5---12-8-2
-
[PITCHING: (IP-H-ER-BB-SO) --- WP-Alan Wedthond, [6.1-1-2-6-7]

Nick Kita, [0.2-0-1-0-2]
-
[BATTING: (AB-R-H-RBI) --- Sam Koss, 3-1-1-1;

Austin Rohe, 4-1-1-1; Nick Kita, 5-2-2-2;

Sir Chadwick LaLuzerne, 3-1-1-1; Craig Kirckman, 4-1-2-0;

Kordtel Daries, 4-0-1-0; Meick Griffen, 3-2-0-1;

Justin Alexander, 2-2-0-1; Riley Biyco, 1-2-0-0;

TOTALS: 29-12-8-2;

~@~~~

KEWAUNEE Chiefs---000-001-1---2-2-2
-
[PITCHING: (IP-H-ER-BB-SO) --- LP-Logan Brusky, [3.1-1-6-5-1]

Alex Honzik, [3.2-6-6-4-2]
-
[BATTING: (AB-R-H-RBI) --- Logan Brusky, 2-0-0-0; Kyle Thompson, 4-1-1-0;

Drew Honzik, 2-0-0-0; Tyler Wotrchek, 2-0-1-0;

Alex Honzik, 3-0-0-0; Austin Jecabek, 3-0-0-0;

Derek Cornils, 3-1-0-0; Anthony Barta, 2-0-0-0;

Josh Lamack, 1-0-0-0; --- TOTALS: 22-2-2-2;

-------------------------------------------------------
(Attn: 50 - Concession, - PA, Eddie Coppersmith,

(Weather: 72 degrees)
--------------------------------------------------------------------------------------------------------------
A "JACK O' DIAMONDS" --- HOME GAME,
-
"Jack O' Diamonds" Game, #622
-------------------------------------------------------
###############################
--------------------------------------------------------------------------------------------------------------

==============================================================

TUESDAY, JUNE 6th, 2017

--------------------------------------------------------------------------------------------------------------
7:30pm, ALGOMA Guins, [-ppd-] @ DENMARK Devilbears, [-ppd-] --- (Tuesday, June 13th)

--------------------------------------------------------------------------------------------------------------

==============================================================

WEDNESDAY, JUNE 7th, 2017

--------------------------------------------------------------------------------------------------------------
7:30pm, KEWAUNEE Chiefs, [-0-] @ TWO RIVERS Polar Bears, [-10-]
--------------------------------------------------------------------------------------------------------------

==============================================================

FRIDAY, JUNE 9th, 2017

--------------------------------------------------------------------------------------------------------------
7:30pm, MANITOWOC Heat, [-3-] @ TWO RIVERS Polar Bears, [-24-]
--------------------------------------------------------------------------------------------------------------
7:30pm, (A KEWAUNEE COUNTY RIVALRY GAME)

Note: The game was cold after three inning, with a power outage.

The game well be played on July 7th, at Casco.

CASCO Athletics, [-3-] @ KEWAUNEE Chiefs, [-1-]

A "JACK O' DIAMONDS" --- HOME GAME
--------------------------------------------------------------------------------------------------------------

==============================================================

SATURDAY, JUNE 10th, 2017

--------------------------------------------------------------------------------------------------------------
4:00pm, MANITOWOC Heat, [-0-] @ BRANCH Blaze, [-10-]
--------------------------------------------------------------------------------------------------------------
7:30pm, (A KEWAUNEE COUNTY RIVALRY GAME,)

CASCO Athletics, [-1-] @ ALGOMA Guins, [-6-]

Note: This is the 150th meeting of these two teams.

CASCO A's---75wins --- ALGOMA Guins---75wins
--------------------------------------------------------------------------------------------------------------

==============================================================

SUNDAY, JUNE 11th, 2017
===============================
===============================
--------------------------------------------------------------------------------------------------------------
###############################
-------------------------------------------------------
[BOX SCORE]
-------------------------------------------------------
2:00pm, At Recreational Park,

{Games: "3-Stars"

#1 - Jereme Jensen, (DDB)

#2 - Max Loberger, (DDB)

#3 - Mitch Kouba, (DDB)

-------------------------------------------------------[BOX SCORE]
-
DENMARK Devilbears---000-000-000---14-13-0
-
[PITCHING: (IP-H-ER-BB-SO) --- WP-Mitch Kouba, [2.2-3-1-0-2]

Trevor DePas, [6.2-4-3-2-5]
-
[BATTING: (AB-R-H-RBI) --- Jacob Gilson, 1-1-0-0;

Sam Crawford, 5-2-2-0; Max Loberger, 6-3-0-3;

Peter Aerts, 4-3-1-1; Jereme Jensen, 6-1-4-5;

Brad Daniels, 4-1-1-0; Logan Zestrow, 6-0-1-1;

Ben Wyngard, 3-0-1-1; Mitch Kouba, 5-1-1-0;

Peter Feldkamp, 3-2-2-1; Travor DePas, 0-0-0-0;

TOTALS: 43-14-13-0;

~@~~~

BRANCH Blaze---000-000-000---8-7-0
-
[PITCHING: Not Available
-
[BATTING: Not Available

-------------------------------------------------------
###############################
--------------------------------------------------------------------------------------------------------------

==============================================================

TUESDAY, JUNE 13th, 2017

--------------------------------------------------------------------------------------------------------------
7:30pm, ALGOMA Guins, [-ppd-] @ DENMARK Devilbears, [-ppd-]
--------------------------------------------------------------------------------------------------------------

==============================================================

WEDNESDAY, JUNE 14th, 2017

--------------------------------------------------------------------------------------------------------------
7:30pm, MANITOWOC Heat, [-ppd-] @ CASCO Athletics, [-ppd-]
--------------------------------------------------------------------------------------------------------------

==============================================================

FRIDAY, JUNE 16th, 2017

--------------------------------------------------------------------------------------------------------------
7:30pm, CASCO Athletics, [-2-] @ TWO RIVERS Polar Bears, [-12-]
--------------------------------------------------------------------------------------------------------------
7:30pm, MANITOWOC Heat, [-ppd-] @ DENMARK Devilbears, [-ppd-]
--------------------------------------------------------------------------------------------------------------

==============================================================

MONDAY, JUNE 19th, 2017

--------------------------------------------------------------------------------------------------------------
7:30pm, ALGOMA Guins, [-ppd-] @ DENMARK Devilbears, [-ppd-]
--------------------------------------------------------------------------------------------------------------

==============================================================

WEDNESDAY, JUNE 21st, 2017
===============================
-------------------------------------------------------
###############################
-------------------------------------------------------
[BOX SCORE]
-------------------------------------------------------
7:30pm, At High School Park,

{Games: "3-Stars"

#1 - Riley Pelishek, (DDB)

#2 - Mitch Kouba, (DDB)

#3 - Peter Felishek, (DDB)

-------------------------------------------------------
[BOX SCORE]
-
TWO RIVERS Polar Bears---100-000-010---2-7-2
-
[PITCHING: Not Available
-
[BATTING: Not Available

~@~~~

DENMARK Devilbears---000-010-002---3-8-2
-
[PITCHING: (IP-H-ER-BB-SO) --- WP-Mitch Kouba, [3.0-4-0-0-3]

Riley Pelishek, [6.0-2-0-1-9]
-
[BATTING: (AB-R-H-RBI) --- Brad Daniels, 1-0-0-0;

Alex Loberger, 4-0-1-0; Peter Aerts, 4-0-1-1;

Jereme Jensen, 3-0-0-0; Max Loberger, 4-0-0-0;

Tyler Nelson, 3-1-1-0; Logan Zastrow, 4-0-1-1;

Mitch Kouba, 4-1-2-0; Peter Feldkamp, 4-1-1-1;

Riley Pelishek, 0-0-0-0; TOTALS: 31-3-7-2;

-------------------------------------------------------
###############################
--------------------------------------------------------------------------------------------------------------
7:30pm, MANITOWOC Heat, [-ppd-] @ KEWAUNEE Chiefs, [-ppd-]
--------------------------------------------------------------------------------------------------------------

==============================================================

FRIDAY, JUNE 23rd, 2017
===============================
===============================
--------------------------------------------------------------------------------------------------------------
7:30pm, BRANCH Blaze, [--] @ TWO RIVERS Polar Bears, [--]
-------------------------------------------------------
###############################
-------------------------------------------------------
[BOX SCORE]
-
7:30pm,

{Games: "3-Stars"

#1 - Sam Crawford, (DDB)

#2 - Ben Wyngaard, (DDB)

#3 - Mitch Kouba, (DDB)

-------------------------------------------------------
[BOX SCORE]
-
MANITOWOC Heat---000-100-0---1-3-5
-
[PITCHING: Not Available
-
[BATTING: Not Available

~@~~~

DENMARK Devilbears---716-300-x---17-13-0
-
[PITCHING: (IP-H-ER-BB-SO) --- WP-Trevor DePas, [4.0-2-0-0-6]

Jerme Jansen, [2.0-1-0-1-0]

Alex Loberger, [1.0-0-0-1-2]
-
[BATTING: (AB-R-H-RBI) --- Brad Daniels, 1-0-0-0;

Ryan Steffel, 2-1-0-1; Logan Zastrow, 1-0-1-0;

Alex Loberger, 3-1-0-1; Sam Crawford, 3-2-2-3;

Jereme Jensen, 2-3-1-2+HR; Peter Aerts, 3-2-1-0;

Max Loberger, 3-2-1-1; Ben Wyngaard, 5-2-2-2;

Mitch Kouba, 3-2-2-4; Trevor DePas, 4-2-2-2;

Peter Feldkamp, 2-0-1-2; TOTALS: 32-17-13-0;

-------------------------------------------------------
###############################
--------------------------------------------------------------------------------------------------------------

==============================================================

SATURDAY, JUNE 24th, 2017

--------------------------------------------------------------------------------------------------------------
4:00pm, BRANCH Blaze, [-3-] @ TWO RIVERS Polar Bears, [-8-]
--------------------------------------------------------------------------------------------------------------

==============================================================

SUNDAY, JUNE 25th, 2017

--------------------------------------------------------------------------------------------------------------
4:00pm, CASCO Athletics, [-8-] @ BRANCH Blaze, [-3-]
--------------------------------------------------------------------------------------------------------------

MONDAY, JUNE 23rd, 2017

--------------------------------------------------------------------------------------------------------------
7:30pm, MANITOWOC Heat, [-1-] @ DENMARK Devilbears, [-17-]
--------------------------------------------------------------------------------------------------------------

==============================================================

TUESDAY, JUNE 27th, 2017

--------------------------------------------------------------------------------------------------------------
7:30pm, ALGOMA Guins, [-28-] @ MANITOWOC Heat, [-1-]
--------------------------------------------------------------------------------------------------------------

==============================================================

WEDNESDAY, JUNE 28th, 2017
===============================
-------------------------------------------------------
###############################
-------------------------------------------------------
[BOX SCORES]
-
Game, 1 7:00pm, At High School Park,

{Games: "3-Stars"

#1 - Mitch Kouba, (DDB)

#2 - Tyler Nelson, (DDB)

#3 - Max Loberger, (DDB)

-------------------------------------------------------
[BOX SCORE]
-
KEWAUNEE Chiefs---000-000-0---4-5-4
-
[PITCHING: Not Available
-
[BATTING: Not Available

~@~~~

DENMARK Devilbears---000-000-0---10-9-4
-
[PITCHING: (IP-H-ER-BB-SO) --- WP-Mitch Kouba, [7.0-5-1-2-12]
-
[BATTING: (AB-R-H-RBI) --- Sam Crawford, 1-0-0-0;

Jacob Gilson, 2-0-0-0; Tanner Orth, 1-0-0-0;

Justin Wotechek, 1-0-0-0; Logan Zastrow, 0-0-0-0;

Alex Loberger, 4-1-0-1; Peter Aerts, 2-2-1-0;

Jereme Jensen, 3-1-1-1; Max Loberger, 2-2-2-2;

Tyler Nelson, 3-0-3-2; Ben Wyhgaard, 2-1-0-1;

Jack Collins, 1-1-0-0; Trevor DePas, 2-1-1-1;

Mitch Kouba, 0-0-0-0; TOTALS: 24-9-8-4;

-------------------------------------------------------
###############################
-------------------------------------------------------
Game 2, 8:30pm, At High School Park,

{Games: "3-Stars"

#1 - Alex Loberger, (DDB)

#2 - Trevor DePas, (DDB)

#3 - Peter Aerts, (DDB)

-------------------------------------------------------
DENMARK Devilbears---000-00---25-16-7
-
[PITCHING: (IP-H-ER-BB-SO) --- WP-Trevor DePas, [5.0-3-0-1-8]
-
[BATTING: (AB-R-H-RBI) --- Sam Crawford, 2-2-1-2;

Jacob Gilson, 0-1-0-0; Tanner Orth, 0-0-0-0;

Ryan Steffel, 0-0-0-0; Alex Loberger, 3-2-3-5;

Peter Aerts, 4-3-3-3+HR; Jereme Jensen, 2-0-2-2;

Max Loberger, 4-3-0-2; Tyler Nelson, 2-3-1-5;

Ben Wyngaard, 4-3-3-2; Brad Daniels, 2-3-0-0;

Jack Collins, 5-1-1-2; Justin Wotechek, 2-4-2-2;

Trevor DePas, 0-0-0-0; TOTALS: 30-25-16-7;

~@~~~

KEWAUNEE Chiefs---000-00---0-3-1
-
[PITCHING: Not Available
-
[BATTING: Not Available

-------------------------------------------------------
###############################
--------------------------------------------------------------------------------------------------------------

==============================================================

THURSDAY, JUNE 29th, 2017

--------------------------------------------------------------------------------------------------------------
7:30pm, BRANCH Blaze, [-?-] @ CASCO Athletics, [-?-]
--------------------------------------------------------------------------------------------------------------

==============================================================

FRIDAY, JUNE 30th, 2017

--------------------------------------------------------------------------------------------------------------
###############################
-------------------------------------------------------
[BOX SCORE]
-
6:30pm, At High School Park,

{Games: "3-Stars"

#1 - Riley Pelishek, (DDB)

#2 - Ben Wyngaard, (DDB)

#3 - Brad Daniels, (DDB)

-------------------------------------------------------
[BOX SCORE]
-
CASCO Athletics---000-020-000---2-2-3
-
[PITCHING: Not Available
-
[BATTING: Not Available

~@~~~

DENMARK Devilbears---400-000-20x---6-13-0
-
[PITCHING: (IP-H-ER-BB-SO) --- WP-Riely Pelishek, [5.0-1-2-6-11]

Logan Zastrow, [4.0-1-0-0-2]
-
[BATTING: (AB-R-H-RBI) --- Sam Crawford, 1-0-0-0;

Jacob Gilson, 0-0-0-0; Justin Wotachek, 1-1-1-0;

Alex Loberger, 5-1-3-0; Peter Aerts, 3-1-2-0;

Jereme Jensen, 3-0-1-2; Max Loberger, 2-1-0-0;

Tyler Nelson, 3-1-2-0; Ben Wyngaard, 4-1-2-2;

Brad Daniels, 4-0-1-2; Mitch Kouba, 4-0-1-0;

Peter Feldkamp, 3-0-0-0; Riley Pelishek, 0-0-0-0;

Logan Zastrow, 0-0-0-0; TOTALS: 33-6-13-0;

-------------------------------------------------------
###############################
--------------------------------------------------------------------------------------------------------------
7:30pm, ALGOMA Guins, [-1-] @ TWO RIVERS Polar Bears, [-11-]
--------------------------------------------------------------------------------------------------------------

==============================================================

WEDNESDAY, JULY 5th, 2017
===============================
-------------------------------------------------------
7:30pm, BRANCH Blaze, [-?-] @ KEWAUNEE Chiefs, [-?-]
--------------------------------------------------------------------------------------------------------------
##############################################################
------------------------------------------------------
7:30pm, At High School Park,

{Games: "3-Stars"

#1 - Alex Loberger, (DDB)

#2 - Tyler Nelson, (DDB)

#3 - Mitch Kouba, (DDB)

-------------------------------------------------------
[BOX SCORE]
-
ALGOMA Guins---000-004-010---5-6-4
-
[PITCHING: Not Available
-
[BATTING: Not Available

~@~~~

DENMARK Devilbears---014-330-00x---11-13-1
-
[PITCHING: (IP-H-ER-BB-SO) --- WP-Trevor DePas, [7.0-5-4-0-7]

Justin Wotechek, [2.0-1-0-0-2]
-
[BATTING: (AB-R-H-RBI) --- Sam Crawford, 1-0-0-0;

Jacob Gilson, 1-0-0-0; Logan Zastrow, 1-0-0-0;

Alex Loberger, 4-2-3-2; Tyler Nelson, 3-2-2-1;

Jereme Jensen, 4-1-1-2; Max Loberger, 5-1-1-1;

Justin Wotachek, 5-1-1-0; Ben Wyngaard, 3-1-1-0;

Mitch Kouba, 3-1-2-1; Jack Collins, 2-2-1-0;

Peter Feldkamp, 3-0-1-1; Trevor DePas, 0-0-0-0;

TOTALS: 35-11-13-1;

-------------------------------------------------------###############################

==============================================================

THURSDAY, JULY 6th, 2017

--------------------------------------------------------------------------------------------------------------
7:30pm, BRANCH Blaze, [-?-] @ ALGOMA Guins, [--]
--------------------------------------------------------------------------------------------------------------

==============================================================

FRIDAY, JULY 7th, 2017

--------------------------------------------------------------------------------------------------------------
7:30pm, DENMARK Devilbears, [-?-] @ TWO RIVERS Polar Bears, [-?-]
--------------------------------------------------------------------------------------------------------------
6:30pm, CASCO Athletics, [-3-] & KEWAUNEE Chiefs, [-1-] with (3in) from JUNE 9th,

7:30pm, ("A Kewanee County Rilvalry Game")

KEWAUNEE Chiefs, [--] @ CASCO Athletics, [--]
--------------------------------------------------------------------------------------------------------------

==============================================================

SATURDAY, JULY 8th, 2017

--------------------------------------------------------------------------------------------------------------
7:30pm, (A "KEWAUNEE COUNTY RIVALRY GAME)

ALGOMA Guins, [-?-] @ CASCO Athletics, [-?-]
--------------------------------------------------------------------------------------------------------------

==============================================================

SUNDAY, JULY 9th, 2017
===============================
===============================
--------------------------------------------------------------------------------------------------------------
2:00pm, TWO RIVERS Polar Bears, [-?-] @ BRANCH Blaze, [-?-]
--------------------------------------------------------------------------------------------------------------
4:00pm, KEWAUNEE Chiefs, [-?-] @ MANITOWOC Heat, [-?-]
--------------------------------------------------------------------------------------------------------------

==============================================================

WEDNESDAY, JULY 12th, 2017
===============================
-------------------------------------------------------
7:30pm, BRANCH Blaze, [--] @ MANITOWOC Heat, [--]
--------------------------------------------------------------------------------------------------------------

==============================================================

FRIDAY, JULY 14th, 2017
===============================
-------------------------------------------------------
7:30pm, TWO RIVERS Polar Bears, [-5-] @ CASCO Athletics, [-o-]
--------------------------------------------------------------------------------------------------------------
7:30pm, (A "KEWAUNEE COUNTY RIVALRY GAME")

(GAME: Number, 251

KEWAUNEE Chiefs, [-5-] @ ALGOMA Guins, [-6-]
--------------------------------------------------------------------------------------------------------------

==============================================================

MONDAY, JULY 17th, 2017
===============================
-------------------------------------------------------
##############################################################
-------------------------------------------------------
7:30pm, At Perry Field,

Games: "3-Stars:

#1 - Peter Aerts, (DDB)

#2 - Max Loberger, (DDB)

#3 - Brad Daniels, (DDB)

-------------------------------------------------------
[BOX SCORE]
-
DENMARK Devilbears---012-000-003---6-9-2
-
[PITCHING: (IP-H-ER-BB-SO) --- WP-Trevor DePas, [2.0-4-1-1-2]

Mitch Kouba, [7.0-3-2-5]
-
[BATTING: (AB-R-H-RBI) --- Logan Zastrow, 2-0-0-0;

Alex Loberger, 4-2-1-0; Peter Aerts, 5-1-2-3;

Jereme Jensen, 5-0-0-0; Max Loberger, 4-1-3-0;

Brad Daniels, 4-0-1-1; Sam Crawford, 4-0-2-0;

Ryan Steffel, 2-0-0-0; Trevor DePas, 3-1-0-0;

Shane Michiels, 4-1-0-0; Mitch Kouba, 0-0-0-0;

TOTALS: 37-6-9-2;

~@~~~

ALGOMA Guins---100-002-011---5-7-3
-
[PITCHING: Not Available
-
[BATTING: Not Available

-------------------------------------------------------
##############################################################

--------------------------------------------------------------------------------------------------------------

==============================================================

WEDNESDAY, JULY 19th, 2017

-------------------------------------------------------
##############################################################
-------------------------------------------------------
7:30pm,

(Games: "3-Stars"

#1 - Peter Aerts, (DDB)

#2 - Logan Zastrow, (DDB)

#3 - Jacob Gilson, (DDB)

-------------------------------------------------------
[BOX SCORE]
-
DENMARK Devilbears---011-321-02---10-10-0
-
[PITCHING: (IP-H-ER-BB-SO) --- WP-Jereme "5E's" Jensen, [5.0-3-0-0-4]

Peter Feldkamp, [2.0-0-0-0-3]

Max Loberger, [1.0-0-0-0-3]
-
[BATTING: (AB-R-H-RBI) --- Brad Daniels, 3-0-0-0;

Shane Michiels, 1-0-0-0; Logan Zastrow, 2-0-1-2;

Alex Loberger, 5-2-2-1; Sam Crawford, 3-0-0-0;

Peter Aerts, 5-1-1-3; Jeneme Jensen, 4-0-0-0;

Max Loberger, 3-2-2-1; Peter Feldkamp, 5-1-1-0;

Mitch Kouba, 3-0-0-0; Jacob Gilson, 4-1-2-1;

Trevor DePas, 3-2-1-0; TOTALS: 41-9-10-0;

~@~~~

MANITOWOC Heat---000-000-00----0-3-4
-
[PITCHING: Not Available
-
[BATTING: Not Available

-------------------------------------------------------
##############################################################
--------------------------------------------------------------------------------------------------------------
7:30pm, BRANCH Blaze, [-?-] @ CASCO Athletics, [-?-]
--------------------------------------------------------------------------------------------------------------

==============================================================

THURSDAY, JULY 20th, 2017
===============================
===============================
--------------------------------------------------------------------------------------------------------------
7:30pm, DOOR COUNTY All-Stars, [-3-]

vs. SHORELAND LEAGUE All-Stars, [-10-]

@ DENMARK
--------------------------------------------------------------------------------------------------------------

==============================================================

FRIDAY, JULY 21st, 2017
===============================
===============================
--------------------------------------------------------------------------------------------------------------
7:30pm, TWO RIVERS Polar Bears, [-?-] @ ALGOMA Guins, [-?-]
--------------------------------------------------------------------------------------------------------------
##############################################################
-------------------------------------------------------
7:30pm, At Village Park

Games: "3-Stars"

#1 - Peter Aerts, (DDB)

#2 - Alex Loberger, (DDB)

#3 - Max Loberger, (DDB)

-------------------------------------------------------
[BOX SCORE]
-
DENMARK Devilbears---010-030-06---10-10-0
-
[PITCHING: (IP-H-ER-BB-SO) --- WP-Logan Zasrrow, [7.0-3-0-5-4]

Riley Pellshek, [1.0-1-0-0-2]
-
[BATTING: (AC-R-H-RBI) --- Shane Michlels, 0-1-0-0;

Alex Loberger, 5-2-2-1; Peter Aerts, 5-2-2-3;

Jereme Jensen, 5-0-1-0; Max Loberger, 4-0-1-2;

Brad Daniels, 5-1-1-0; Ben Wyngaard, 4-0-1-0;

Mitch Kouba, 4-1-1-1; Jack Collins, 2-2-1-1;

Peter Feldkamk, 3-1-0-0; Riley Pellshek, 0-0-0-0;

Logan Zastrow, 0-0-0-0; TOTALS: 37-10-10-0;

~@~~~

CASCO Athletics---000-000-00---0-4-3
-
[PITCHING: Not Available
-
[BATTING: Not Available

##############################################################
--------------------------------------------------------------------------------------------------------------

==============================================================

SATURDAY, JULY 22nd, 2017
===============================
===============================
2:00pm, TWO RIVERS Polar Bears, [-8-] @ KEWAUNEE Chiefs, [-13-]
------------------------------------------------------
6:00pm, TWO RIVERS Polar Bears, [-23-] @ MANITOWOC Heat, [-8-]
--------------------------------------------------------------------------------------------------------------

==============================================================

SUNDAY, JULY 23rd, 2017
===============================
===============================
--------------------------------------------------------------------------------------------------------------
3:00pm, KEWAUNEE Chiefs, [-0-] @ BRANCH Blaze, [-10-]
-------------------------------------------------------'
5:00pm, BRANCH Blaze, [-4-] vs KEWAUNEE Chiefs, [-3-]
--------------------------------------------------------------------------------------------------------------

==============================================================

MONDAY, JULY 24th, 2017

--------------------------------------------------------------------------------------------------------------
##############################################################
-------------------------------------------------------
7:30pm, At High School Park

(Games: "3-Stars"

#1 - Trevor DePas, (DDB)

#2 - Jereme Jensen, (DDB)

#3 - Alex Loberger, (DDB)

-------------------------------------------------------
[BOX SCORE]
-
BRANCH Blaze---000-001-000---1-2-4
-
[PITCHING: Not Available
-
[BATTING: Not Available

~@~~~

DENMARK Devilbears---122-101-020---9-12-0
-
[PITCHING: (IP-H-ER-BB-SO) --- WP-Trevor DePas, [6.0-1-1-2-8]

Alex Loberger, [1.0-0-0-0-1]

Riley Pelishek, [2.0-1-0-1-1]
-
[BATTING: (AB-R-H-RBI) --- Sam Crawford, 2-0-0-0;

Trevor DePas, 2-0-1-0; Jacob Gilson, 1-0-0-0;

Ryan Stuffel, 1-0-0-0; Ben Wyngaard, 1-0-1-0;

Logan Zastrow, 2-0-0-0; Alex Loberger, 4-3-2-1;

Peter Aerts, 5-2-2-1; Jereme Jensen, 5-1-2-2;

Max Loberger, 4-1-2-1; Brad Daniels, 3-0-0-1;

Jack Collins, 1-1-0-0; Mitch Kouba, 3-1-2-1;

Shane Michlels, 2-0-0-0; Peter Feldkamp. 2-0-0-1;

Riley Pelishek, 0-0-0-0; TOTALS: 38-9-12-0;

-------------------------------------------------------
##############################################################
--------------------------------------------------------------------------------------------------------------
7:30pm, MANITOWOC Heat, [-0-] @ ALGOMA Guins, [-20-]
--------------------------------------------------------------------------------------------------------------

==============================================================

WEDNESDAY, JULY 26th, 2017

--------------------------------------------------------------------------------------------------------------
7:30pm, DENMARK Devilbears, [-ppd-] @ TWO RIVERS Polar Bears, [-ppd-]
--------------------------------------------------------------------------------------------------------------
7:30pm, BRANCH Blaze, [-ppd-] @ MANITOWOC Heat, [-ppd-]
--------------------------------------------------------------------------------------------------------------
7:30pm, CASCO Athletics, [-4-] @ KEWAUNEE Chiefs, [-5-]
--------------------------------------------------------------------------------------------------------------

______________________

[End of Regular Season]
______________________

-------------------------------------------------------

PLAY-In, GAME

SUNDAY, JULY 30th, 2017

2:00pm, At Branch

KEWAUNEE Chiefs, [-2-] @ BRANCH Blaze, [-13-]

==============================================================


WEDNESDAY, AUGUST 2nd, 2017

--------------------------------------------------------------------------------------------------------------
7:30pm, SHORELAND Playoffs

--------------------------------------------------------------------------------------------------------------
##############################################################
-------------------------------------------------------
7:30pm, At High School Park

(Games: "3-Stars"

#1 - Trevor DePas, (DDB)

#2 - Peter Aerts, (DDB)

#3 - Jereme Jensen, (DDB)

-------------------------------------------------------
BRANCH Blaze---000-040-010---5-3-3
-
[PITCHING: Not Available
-
[BATTING: Not Available

~@~~~

DENMARK Devilbears---101-600-11x---10-17-0
-
[PITCHING: (IP-H-ER-BB-SO) --- WP-Trevor DePas, [8.0-3-3-1-9]

Logan Zastrow, [1.0-0-0-0-1]
-
[BATTING: (AB-R-H-RBI) --- Ben Wyngaard, 1-0-1-1;

Alex Loberger, 5-1-0-0; Peter Aerts, 4-3-4-1;

Jereme Jensen, 5-1-3-2; Max Loberger, 3-1-1-1;

Brad Daniels, 5-1-1-0; Jack Collins, 4-0-2-1;

Mitch Kouba, 5-2-3-0; Shane Michlels, 3-0-1-0;

Peter Feldkamp, 5-1-1-1; Trevor DePas, 0-0-0-0;

Logan Zastrow, 0-0-0-0; TOTALS: 40-10-17-0;

-------------------------------------------------------
##############################################################
--------------------------------------------------------------------------------------------------------------
7:30pm, TWO RIVERS Polar Bears, [-11-] @ ALGOMA Guins, [-2-]
--------------------------------------------------------------------------------------------------------------

==============================================================

FRIDAY, AUGUST 4th, 2017

--------------------------------------------------------------------------------------------------------------
7:30pm, SHORELAND Playoffs
--------------------------------------------------------------------------------------------------------------
7:30pm, ALGOMA Guins, [-0-] @ TWO RIVERS Polar Bears, [-5-]

"Bears" Will move on
--------------------------------------------------------------------------------------------------------------

===============================
===============================

SATURDAY, AUGUST 5th,

--------------------------------------------------------------------------------------------------------------
##############################################################
-------------------------------------------------------
11:00am, At Branch Recreational Park

Games: #3-Stars"

#1 - Brad Daniels, (DDB)

#2 - Jack Collins, (DDB)

#3 - Peter Aerts, (DDB)

-------------------------------------------------------
[BOX SCORE]

DENMARK Devilbears---300-020-032---10-16-6
-
[PITCHING: (IP-H-ER-BB-SO) --- WP-Mitch Kouba, [8.0-6-0-1-6]

Peter Aerts, [1.0-0-0-0-0]
-
[BATTING: (AB-R-H-RBI) --- Ryan Steffel, 1-2-0-1;

Alex Loberger, 2-2-1-0; Peter Aerts, 5-3-3-1;

Jereme Jensen, 2-0-1-1; Max Loberger, 5-1-1-1;

Brad Daniels, 6-1-2-4; Jack Collins, 5-0-4-2;

Mitch Kouba, 5-0-1-0; Shane Michlels, 3-1-2-0;

Logan Zastrow, 5-0-1-0; TOTALS: 39-10-16-6;

~@~~~

BRANCH Blaze---100-021-010---5-6-3
-
[PITCHING: (IP-H-ER-BB-SO) --- Not Available
-
[BATTING: (AB-R-H-RBI) --- Not Available

-------------------------------------------------------
##############################################################
--------------------------------------------------------------------------------------------------------------


===============================
===============================

WEDNESDAY, AUGUST 9th, 2017

--------------------------------------------------------------------------------------------------------------
7:30pm,

DENMARK Devilbears, [-ppd-] @ TWO RIVERS Polar Bears, [-ppd-]

==============================================================

FRIDAY, AUGUST 11th, 2017

--------------------------------------------------------------------------------------------------------------
7:30pm,

TWO RIVERS Polar Bears, [-8-]

~@~~~

DENMARK Devilbears, [-5-]

===============================
===============================

SATURDAY, AUGUST 12th, 2017
-------------------------------------------------------
7:30pm,

DENMARK Devilbears, [-1-]

~@~~~

TWO RIVERS Polar Bears, [-6-]

--------------------------------------------------------------------------------------------------------------
SHORELAND Playoffs: 2017, Playoff Champion,

TWO RIVERS Polar Bears
--------------------------------------------------------------------------------------------------------------

==============================================================

2016, SHORELAND, GRAND CHAMPIONS:

DENMART Devilbears

==============================================================

==============================================================

SHORELAND BASEBALL LEAGUE, "HISTORY"

==============================================================

==============================================================

2016, SHORELAND League, "FINAL" Standings

NORTH Division

------W--L---.PCT----TEAMS
-----11---2---.845------LITTLE CHUTE Bandits
------9---4---.692 ------ALGOMA Guins
------7---6---.538-------BRANCH Blaze
------4---9---.308-------KEWAUNEE Chiefs
------1--12---.077-------CASCO Athletics

SOUTH Division

------W--L---.PCT----TEAMS
-----12---1---.923------TWO RIVERS Polar Bears
-----10---3---.727------DENMARK Devilbears
------6---7---.462------SHEBOYGAN Braves
------2--11---.154------HOWARDS GROVE River Dogs
------0--13---.000------MANITOWOC Heat

2016, Grand Champion, DENMARK Devilbears

==============================================================

2015, SHORELAND League, "FINAL" Standings

------W--L---.PCT----TEAMS
-----17---1---.929------CASCO Athletics
-----15---3---.833------TWO RIVERS Polar Bears
-----14---4---.765------DENMARK Devilbears
-----13---5---.714------LITTLE CHUTE Bandits
-----10---8---.588------ALGOMA Guins
------5--13---.278------KEWAUNEE Chiefs
------5--13---.278------HOWARDS GROVE Riverdogs
------4--14---.222------MANITOWOC Heat
------4--14---.222------BRANCH Blaze
------4--14---.222------SHEBOYGAN Braves

2015, Grand Champions - TWO RIVERS Polar Bears

==============================================================

2014, SHORELAND League, "FINAL" Standings

------W--L---.PCT----TEAMS
-----13---3---.813-----DENMARK Devilbears
-----12---4---.750-----LITTLE CHUTE Bandits
-----12---4---.750-----TWO RIVERS Polar Bears
-----12---4---.750-----CASCO Athletics
------9---7---.563-----ALGOMA Guins
------5--11---.313-----KEWAUNEE Chiefs
------3--13---.188-----MANITOWOC Heat
------3--13---.188-----BRANCH Blaze
------3--13---.188-----SHEBOYGAN Braves


2014 - Grand Champions - DENMARK Devilbears

==============================================================

2013, SHORELAND BASEBALL League, "FINAL" Standings

------W--L----.PCT----TEAMS
-----12---2----.857-----TWO RIVERS Polar Bears
-----11---3----.785-----DENMARK Devilbears
------9---5----.643-----CASCO Athletics
------9---5----.643-----LITTLE CHUTE Bandits
------7---7----.500-----ALGOMA Guins
------4--10----.286-----KEWAUNEE Chiefs
------2--12----.143-----BRANCH Blaze
------2--12----.143-----MANITOWOC Heat

2013 - Grand Champions - TWO RIVERS Polar Bears

==============================================================

2012, SHORELAND BASEBALL League, "FINAL" Standings

------W--L---.PCT----TEAMS
-----15---3---.833-----CASCO Athletics
-----13---5---.722-----DENMARK Devilbears
-----12---6---.667-----TWO RIVERS Polar Bears
-----11---7---.611-----KEWAUNEE Chiefs
------6--12---.333-----BRANCH Blaze
------5--13---.278-----ALGOMA Guins
------1--17---.056-----MANITOWOC Heat

2012 - Grand Champions - TWO RIVERS Polar Bears

==============================================================

2011, SHORELAND BASEBALL League, "FINAL" Standings

------W--L---.PCT----TEAMS
------15---3---.833-----DENMARK Devilbears
------13---5---.722-----KEWAUNEE Chiefs
------12---6---.667-----ALGOMA Guins
------10---8---.556-----CASCO Athletics
-------9---9---.500-----TWO RIVERS Polar Bears
-------4--14---.222-----BRANCH Blaze
-------0--18---.000-----MANITOWOC Heat

Grand Champions: DENMARK Devilbears

==============================================================

2010, SHORELAND BASEBALL League, "FINAL" Standings

------W--L---.PCT----TEAMS
------16---2---.875-----DENMARK Devilbears
------13---5---.722-----KEWAUNEE Chiefs
------11---7---.611-----ALGOMA Guins
------10---8---.556-----CASCO Athletics
-------9---9---.500-----BRANCH Blaze
-------4--14---.222-----TWO RIVERS Polar Bears
-------0--18---.000-----MANITOWOC Heat

Grand Champions: DENMARK Devilbears

==============================================================



==============================================================

SHORELAND BASEBALL LEAGUE ~ "HISTORY"

==============================================================

____________
2016, Season
-
????????
-
????????
-
????????
==============================================================
____________
2015, Season
-
Grand Champions: TWO RIVERS Polar Bears
Season Champions: CASCO Athletics
Batting Champ: Spencer Miller, 525 - LITTLE CHUTE Bandits
Pitching Award: Luke Mandich, TWO RIVERS Polar Bears
Shoreland, M.V.P. - Shawn Correy, CASCO Athletics

==============================================================
____________
2014, Season
-
Grand Champions: DENMARK Devilbears
Season Champions: DENMARK Devilbears
Batting Champ: ?
Pitching: ?
Shoreland, MVP ?

==============================================================
_____________
2013, Season
-



==============================================================
____________
2012, Season
-
Grand Champions: TWO RIVERS Polar Bears
Season Champions: CASCO Athleics
Batting Champ: Mike Ruzack, Two Rivers Polar Bears - .497
Pitching Honors: Mike Ruzack, Two Rivers Polar Bears
Shoreland MVP: Mike Ruzack, Two Rivers Polar Bears ~ (Triple Crown Winner)

==============================================================
____________
2011, Season
-
Grand Champions: DENMARK Devilbears
Batting Champ: Dave Paplham, Kewaunee Chiefs - .412
Pitching Honors: Chad LaLuzerne, Algoma Guins
Shoreland MVP: Tanner Ledvina, Kewaunee Chiefs

==============================================================
____________
2010, Season
-
Grand Champions: DENMARK Devilbears
Batting Champ: Ben Jaeger, Denmark Devilbears
Pitching Honors: Casey Mumper, Kewaunee Chiefs
Shoreland MVP: Casey Mumper, Kewaunee Chiefs

==============================================================
____________
2009, Season
-
Grand Champions: DENMARK Devilbears
Batting Champion: Lawton Pieschek, Denmark Devilbears
Pitching Honors: Jason Arendt, Casco Athletics
Shoreland MVP: Lawton Pieschek, Denmark Devilbears

==============================================================
____________
2008, Season
-
Grand Champions: DENMARK Devilbears
Batting Champ: Paul Smith, Branch Blaze - .406
Pitching Honors: Alex Ackerman, Algoma Guins
Shoreland MVP: Doug Novak, Algoma Guins

==============================================================
____________
2007, Season
-
Grand Champions: DENMARK Devilbears
Batting Champ: Dominic White, Oneida Braves - .403
Pitching Honors: Casey Mumper, Kewaunee Chiefs
Shoreland MVP: Casey Mumper, Kewaunee Chiefs

==============================================================
____________
2006, Season
-
Grand Champions: KEWAUNEE Chiefs
Season Champions: ALGOMA Guins
Batting Champ: Tom Schmidt, Two Rivers Polar Bears - .412
Pitching Honors: Ryan Klessig, Algoma Guins
Shoreland MVP: John Mleziva, Casco Athletics

==============================================================
____________
2005, Season
-
Grand Champions: CASCO Athletics
Batting Champ: Ben Jewsen, Two Rivers Polar Bears - .415
Pitching Honors: Justin Massey, Casco Athletics
Shoreland MVP: Keith Danforh, Oneida Braves

==============================================================
____________
2004, Season
-
Grand Champions: CASCO Athletics
Batting Champ: Ben Jewsen, Two Rivers Polar Bears - .556
Pitching Honors: Chris Thousand, Howards Grove A-C's
Shoreland MVP: John Bray, Casco Athletics

==============================================================
____________
2003, Season
-
Grand Champions: HOWARDS GROVE A-C's
Batting Champ: John Bray, Casco Athletics - .494
Pitching Honors: Ryan Shaw, Howards Grove A-C's & Brad Novak, Algoma Guins
Shoreland MVP: John Bray, Casco Athletics

==============================================================
____________
2002, Season
-
Grand Champions: CASCO Athletics
Batting Champ: Jason Arendt, Casco Athletics - .531
Pitching Honors: Jason Arendt, Casco Athletics
Shoreland MVP: Ryan Klessig, Algoma Guins

==============================================================
____________
2001, Season
-
Grand Champions: DePERE River Bandits
Batting Champ: P.J. Weber, Howards Grove A-C's - .513
Pitching Honors: Justin Massey, Casco Athletics
Shoreland MVP: Jason Stangel, Kewaunee Chiefs

==============================================================
____________
2000, Season
-
Grand Champions: HOWARDS GROVE A-C's
Batting Champ: Kelly O'Brian, DePere River Bandits - .416
Pitching Honors: Joe Rukamp, DePrer River Bandits
Shoreland MVP's: Lance Hill, Oneida Braves & Matt Woodrow, Howards Grove A-C's

==============================================================
____________
1999, Season
-
Grand Champions: DePERE River Bandits
Batting Champ: Brett Sparth, DePere River Bandits - .536
Pitching Honors: Joe Rukamp, DePere River Bandits
Shoreland MVP: Jason Rohr, Kewaunee Chiefs

==============================================================
____________
1998, Season
-
Grand Champions: MENASHA Macs
Batting Champ: Jason Rohr, Kewaunee Chiefs - .506
Pitching Honors: Joe Rukamp, DePere River Bandits
Shoreland MVP: Dan Yagodinski, Casco Athletics

==============================================================
____________
1997, Season
-
Grand Champions: MENASHA Macs
Season Champions: KAUKAUNA Cattle Dogs
Batting Champ: Corrie Zimmerman, Algoma Guins - .458
Pitching Honors: Joe Rukamp, DePere River Bandits
Shoreland MVP: Corrie Zimmerman, Algoma Guins

==============================================================
____________
1996, Season
-
Grand Champions: KEWAUNEE Chiefs
Batting Champ: Jason Barlett, Ashwaubeon Cubs - .451
Pitching Honors: Ben Gorres, Menasha Macs
Shoreland MVP: Dan Yagodinski, Casco Athletics

==============================================================
____________
1995, Season
-
Grand Champions: ASHWAUBEON Cubs
Batting Champ: Jamie Hennen, Howards Grove A-C's - .472
Pitching Honors: Brian Skatz, Howards Grove A-C's
Shoreland MVP: Brian Skatz, Howards Grove A-C's

==============================================================
____________
1994, Season
-
Grand Champions: MENASHA Macs
Batting Champ: Jamie Hennen, Howards Grove A-C's - .467
Pitching Honors: Mark Woerfel, Menasha Macs
Shoreland MVP: Jamie Hennen, Howards Grove A-C's

==============================================================
____________
1993, Season
-
Grand Champions: HOWARDS GROVE A-C's
Batting Champ: Dan Yagodinski, Casco Athletics - .456 (Triple Crown Winner)
Shoreland MVP: Dan Yagodinski, Casco Athletics

==============================================================
____________
1992, Season
-
Grand Champions: BRANCH Blaze
Batting Champ: Jeff Schomberg, Howards Grove A-C's - .448
Shoreland MVP: No Award Givin

==============================================================
____________
1991, Season
-
Grand Champions: HOWARDS GROVE A-C's
Batting Champ: Brian Cashore, Branch Blaze - .493
Shoreland MVP: Dan Yagodinski, Casco Athletics

==============================================================
____________
1990, Season
-
Grand Champions: HOWARDS GROVE A-C's
Batting Champ: Rick Meyer, Howards Grove A-C's - .500
Shoreland MVP: Dennis King, Oneida Braves

==============================================================
____________
1989, Season
-
Grand Champions: HOWARDS GROVE A-C's
Batting Champ: Mike Jacques, Ashwaubeon Cubs - .473
Shoreland MVP: Mike Jacques, Ashwaubeon Cubs (Triple Crown Winner)

==============================================================
____________
1988, Season
-
Grand Champions: HOWARDS GROVE A-C's
Batting Champ: Jeff Schonburg, Howards Grove - .537
Shoreland MVP: Jeff Schonburg, Howards Grove

==============================================================
____________
1987, Season
-
Grand Champions: KEWAUKEE Chiefs
Batting Champ: Chris Kohnle, Kewaunee Chiefs - .507 (Triple Crown Winner)
Shoreland MVP: Mark Hinski, Menaska Macs

==============================================================
____________
1986, Season
-
Grand Champions: KIMBERLY
Season Champs: Ashwaubeon Cubs
Batting Champ: Greg Schabern, Kimberly - .???
Shoreland MVP: Greg Schabern, Kimberly

==============================================================
____________
1985, Season
-
Grnad Champions: ASHWAUBE0N Cubs
Batting Champ: Paul Hermann, Twin Cities - .508
Shoreland MVP: Tim Carney, Ashwaubeon Cubs

==============================================================
____________
1984, Season
-
Grand Champions: HOWARDS GROVE A-C's
Batting Champ: Dan Miller, Howards Grove A-C's - .541
Shoreland MVP: Dan Miller, Howards Grove A-C's

==============================================================
____________
1983, Season
-
Grand Champions: HOWARDS GROVE A-C's
Batting Champ: Ed King, Jr., Oneida Braves - .419
Shoreland MVP: Pete Guth, Algoma Penguins

==============================================================
____________
1982, Season
-
Grand Champions: Unknown
Batting Champ: Randy Foyt, Casco Athletics - .527
Shoreland MVP: Randy Foyt, Casco Athletics (Triple Crown Winner)

==============================================================
____________
1981, Season
-
Grand Champions: HOWARDS GROVE A-C's
Batting Champ: Brian Hipple, Howards Grove A-C's - .???
Shoreland MVP: Gig Christensen, Howards Grove A-C's

==============================================================
____________
1980, Season
-
Grand Champions: HOWARDS GROVE A-C's
Batting Champ: Mark Kuhn, Howards Grove A-C's - .391
Shoreland MVP: Terry Berkawitz, Howards Grove A-C's

==============================================================
____________
1979, Season
-
Grand Champions: Unknown
Batting Champ: Dave Wagner, Cleveland Wildcats - .456
Shoreland MVP: Dave Wagner, Cleveland Wildcats

==============================================================
____________
1978, Season
-
Grand Champions: HOWARDS GROVE A-C's
Batting Champ: Clete Wagner, Cleveland Wildcats - .426
Shoreland MVP: Wayne Bottenger, Howards Grove A-C's

==============================================================
____________
1977, Season
-
Grand Champions: TWO RIVERS Polar Bears
Batting Champ: Lee Wetenkamp, Two Rivers Polar Bears - .???
Shoreland MVP: Lee Wetenkamp. Two Rivers Polar Bears

==============================================================
____________
1976, Season
-
Grand Champions: TWO RIVERS Polar Bears
Batting Champ: Robert Laack, Howards Grove A-C's
Shoreland MVP: Denny Hrdina, Two Rivers Polar Bears

==============================================================
____________
1975, Season
-
Grand Champions: Unknown
Batting Champ: Bill Shaw, Kewaunee Chiefs - .489
Shoreland MVP: Denny Hrdina, Two Rivers Polar Bears

==============================================================
____________
1974, Season
-
Grand Champions: TWO RIVERS Polar Bears
Batting Champ: Gaylord Mauer, Algoma Penguins - .400
Shoreland MVP: Paul Oswald, Two Rivers Polar Bears

==============================================================
____________
1973, Season
-
Grand Champions: KEWAUNEE Chiefs
Batting Champ: Lee Bogenschultz, Cleveland Wildcats - .494
Shoreland MVP: Denny Hrdina, Two Rivers Polar Bears

==============================================================
____________
1972, Season
-
Grand Champions: KEWAUNEE Chiefs
Batting Champ: Pete Rohr, Kewaunee Chiefs - .???
Shoreland MVP: Jim Cullen, Cleveland Wildcats

==============================================================
____________
1971, Season
-
Grand Champions: Unknown
Batting Champ: Larry Witt, Manitowoc Panthers - .428
Shoreland MVP: Dennis Semph, Howards Grove A-C's

==============================================================
____________
1970, Season
-
Grand Champions: HOWARDS GROVE A-C's
Batting Champ: Dom Guetchow, Two Rivers Polar Bears - .477
Shoreland MVP: Jim Lallemont, Howards Grove A-C's

==============================================================
____________
1969, Season
-
Grand Champions: HOWARDS GROVE A-C's
Batting Champ: Mark Miller, Valders Oilers - .520
Shoreland MVP: Robert Laack, Howards Grove A-C's

==============================================================
____________
1968, Season
-
Grand Champions: CLEVELAND Wildcats
Batting Champ: Jim Lallemont, Howards Grover A-C's - .450
Shoreland MVP: Bill Grimm, Two Rivers Polar Bears

==============================================================
____________
1967, Season
-
Grand Champions: HOWARDS GROVE A-C's
Manager Of The Year: Hank Semph
Batting Champ: Larry Schomburg, Howards Grove A-C's - .480
Shoreland MVP: Bill Grimm, Two Rivers Polar Bears

==============================================================

--------------------------------------------------------------------------------------------------------------
Jack Sprecher, aka "Jack O' Diamonds"

Algoma City Baseball Historian,

www.leaguelineup.com/algomaguins,

920-304-2211
--------------------------------------------------------------------------------------------------------------

==============================================================


Venue Information and Directions


Click here for more information