Last Updated: September 4, 2015

Back to Previous Page

SHORELAND BASEBALL LEAGUE, 1967 - 2015
Date(s):   5/1/2014 - 9/8/2014
Contact Info:

General Information
.
======================================================================================================================================================
======================================================================================================================================================

2015, SHORELAND BASEBALL LEAGUE,

Teams: --- ALGOMA Guins, --- BRANCH Blaze, --- CASCO Athletics, --- KEWAUNEE Chiefs, --- TWO RIVERS Polar Bears,
--- DENMARK Devilbears, --- LITTLE CHUTE Bandits, --- MANITOWOC Heat, --- SHEBOYGAN Braves, --- HOWARDS GROVE Riverdogs,

======================================================================================================================================================


---------------------------------------------------------------------------------------------------------------------------------------------------------------------

SHORELAND BASEBALL LEAGUE

1967 - 2015

---------------------------------------------------------------------------------------------------------------------------------------------------------------------

--------------------------------------------------------------------------------------------------------------
(Last Update: September 3rd, 2015)
--------------------------------------------------------------------------------------------------------------

||||||||||||||||||||||||||||||||||||||||||||||||||||||||||||||||||||||||||||||||||||||||||||||||||||||||||||||

SHORELAND BASEBALL LEAGUE, "NEWS"

2015, SHORELAND, "Semi-Final" Playoffs

--------------------------------------------------------------------------------------------------------------

==============================================================

WEDNESDAY, AUGUST 5th, 2015

--------------------------------------------------------------------------------------------------------------
7:30pm, At High School Field, Denmark

[Game 1]

{3-Stars: --- #1 - Mike Ruzek {TWR} --- #2 - Shad Hintz {TWR} --- #3 - Mitch Kouba {DDB}

TWO RIVERS Polar Bears---000-100-005---6-10-3
-
PITCHING: [IP-H-ER-BB-Ks] --- WP-Mike Ruzek, [9.0-6-1-0-8]
-
BATTING: [AB-R-H-RBI] --- Brandon Bartels, 5-0-0-0; Casey Bartels, 4-1-0-0; Mike Ruzek, 4-2-2-0; Shad Hintz, 4-1-3-1; A.J. Dollinger, 3-0-1-0; Jared Surman, 3-1-0-0; Chris Rohr, 4-1-1-1; Jake Jeanquart, 4-0-0-1; Derek Klarkowski, 4-0-1-1; ~ LOB-4 ~ Totals: 35-6-8-5;

~@~~~

DENMARK Devilbears---000-000-031---4-8-3
-
PITCHING: [IP-H-ER-BB-Ks] --- LP-Mitch Kouba, [9.0-10-3-1-6]
-
BATTING: [AB-R-H-RBI] --- Peter Aerts, 4-1-1-0; Max Loberger, 4-0-1-1; Kevin Konkol, 4-0-0-0; Brad Daniels, 4-1-2-0; Mitch Kouba, 4-0-2-0; Trevor DePas, 4-0-0-0; Ryan Steffel, 4-0-1-1; Ben Wyngaard, 4-1-1-0; Alex Michiels, 3-1-0-0; ~ Totals: 35-4-8-3;
--------------------------------------------------------------------------------------------------------------
7:30pm, At Van Lieshout Park, Little Chute

[Game 1]

CASCO Athletics-----------[2]
~@~~~
LITTLE CHUTE Bandits-----[1]
--------------------------------------------------------------------------------------------------------------

==============================================================

FRIDAY, AUGUST 7th, 2015

--------------------------------------------------------------------------------------------------------------
7:30pm, At Walsh Field, Two Rivers

DENMARK Devilbears----[0-1] ~~~ [PPD-Rain]
~@~~~
TWO RIVERS Polar Bears---[1-0] ~~~ [PPD-Rain]
--------------------------------------------------------------------------------------------------------------
7:30pm, At Village Park, Casco

LITTLE CHUTE Bandits---[0-1] ~~~ [PPD-Rain]
~@~~~
CASCO Athletics---[1-0] ~~~ [PPD-Rain]
--------------------------------------------------------------------------------------------------------------

==============================================================

SATURDAY, AUGUST 8th, 2015

------------------------------------------------------------------------------------------------------------
12:00pm, At Walsh Field, Two Rivers
-
[Game 2]
-
DENMARK Devibears---000-000-000---0-8-1
-
PITCHING: [IP-H-ER-BB-Ks] --- LP-Trevor DePas, [8-0-2-1-2-2]
-
BATTING: [AB-R-H-RBI] --- Alex Michiels, 5-0-2-0; Jeneme Jensen, 5-0-0-0; Peter Aerts, 4-0-2-0; Max Loberger, 3-0-0-0; Mitch Kouba, 4-0-1-0; Kevin Konkol, 4-0-0-0; Shane Michiels, 4-0-1-0; Ben Wyngaard, 3-0-1-0; Ryan Steffel, 0-0-0-0; Trevor DePas, 3-0-1-0; ~ Totals: 35-0-8-1;

~@~~~

TWO RIVERS Polar Bears---020-000-00x---2-2-2
-
PITCHING: [Not Available]
-
BATTING: [Not Available]
--------------------------------------------------------------------------------------------------------------
2:30pm, At Village Park, Casco
-
[Game 2]
-
LITTLE CHUTE Bandits---[1]
~@~~~
CASCO Athletics---[6]
--------------------------------------------------------------------------------------------------------------

============================================================================================================================
==========================

SHORELAND BASEBALL LEAGUE,

2015, CHAMPIONSHIP "FINALS"

"Best of Three"

--------------------------------------------------------------------------------------------------------------

WEDNESDAY, AUGUST 12th, 2015

--------------------------------------------------------------------------------------------------------------
7:30pm, At Village Park, Casco

{3-Stars: --- #1 - Mike Ruzek {TWR} --- #2 - Jared Surman {TWR} --- #3 - A.J. Dollinger {TWR}

[Game 1]

TWO RIVERS Polar Bears---[2-7-1]
-
PITCHING: [IP-H-ER-BB-Ks] --- WP-Mike Ruzek, [9.0-6-0-1-13]
-
BATTING: [AB-R-H-RBI] --- Casey Bartels, 3-0-1-0; Chris Casper, 4-0-2-0; Derek Klarkowski, 3-0-1-0p Jared Surman, 4-1-2-1+HR; Brandon Bartels, 4-0-0-0; A.J. Dollinger, 4-1-1-1+HR; Shad Hintz, 4-0-0-0; Mike Ruzek, 4-0-0-0; ~ Totals: 33-2-7-1;

~@~~~

CASCO Athletics---[0-6-0]
-
PITCHING: [Not Available]
-
BATTING: [Not Available]
--------------------------------------------------------------------------------------------------------------

==============================================================

FRIDAY, AUGUST 14th, 2015

--------------------------------------------------------------------------------------------------------------
7:30pm, At Walsh Field, Two Rivers

{3-Stars: --- #1 - Luke Mandich {TWR} --- #2 - Chris Casper {TWR} --- #3 - Brandon Bartels {TWR}

[Game 2]

CASCO Athletics---[1-2-3]
-
PITCHING: [Not Available]
-
BATTING: [Not Available]
~@~~~

TWO RIVERS Polar Bears---[2-6-3]
-
PITCHING: [IP-H-ER-BB-Ks] --- WP-Ryan Boettcher, [2.0-0-0-0-2] --- Luke Mandich, [7.0-2-0-3-3]
-
BATTING: [AB-R-H-RBI] --- Chris Casper, 5-1-2-0; Dereck Klarkowski, 3-0-0-0; Chris Rohr, 2-0-0-0; Brandon Bartels, 4-1-2-0; A.J. Dollinger, 4-0-0-0; Shad Hintz, 4-0-0-0; Jake Jeanquart, 4-0-1-1; Mike Ruzek, 4-0-0-0; Ryan Boettcher, 4-0-1-1; Luke Mandich, 0-0-0-0; ~ Totals: 34-2-6-0;
--------------------------------------------------------------------------------------------------------------

==============================================================

2015, SHORELAND BASEBALL LEAGUE,

"GRAND CHAMPIONS"

TWO RIVERS Polar Bears

==============================================================

||||||||||||||||||||||||||||||||||||||||||||||||||||||||||||||||||||||||||||||||||||||||||||||||||||||||||||||

======================================================================================================================================================

--------------------------------------------------------------------------------------------------------------

SHORELAND BASEBALL LEAGUE, "FINAL" Standings

------W--L---.PCT----TEAMS
------17---1---.929-------CASCO Athletics
------15---3---.833-------TWO RIVERS Polar Bears
------14---4---.765-------DENMARK Devilbear
------13---5---.714-------LITTLE CHUTE Bandits
------10---8---.588-------ALGOMA Guins
-------5--13---.278-------KEWAUNEE Chiefs
-------5--13---.278-------HOWARDS GROVE River Dogs
-------4--14---.222-------SHEBOYGAN Braves
-------4--14---.222-------BRANCH Blaze
-------4--14---.222-------MANITOWOC Heat

[18 Game Season]

======================================================================================================================================================

--------------------------------------------------------------------------------------------------------------

2015, SCHUDULE & RESULTS

--------------------------------------------------------------------------------------------------------------

======================================================================================================================================================

WEDNESDAY, MAY 20th, 2015

"Shoreland League Opener"

--------------------------------------------------------------------------------------------------------------
8:00pm, At Memorial Park, Howards Grove

TWO RIVERS Polar Bears---[8] ~ WP-Mike Ruzek, [6.0-3H-5Ks]

~@~~~

HOWARDS GROVE Riverdogs---[3] ~ LP-?

[In the bottom of the 1st inning, the Polar Bears turned in a triple play, 1-6-3-2. Since reactivation in 2002 this is the first triple play this team has ever converted.]
--------------------------------------------------------------------------------------------------------------

======================================================================================================================================================

FRIDAY, MAY 22nd, 2015

--------------------------------------------------------------------------------------------------------------
7:30pm, At Municipal Field, Manitowoc

BRANCH Blaze---100-000-100---2-6-3 ~ LP-AJ Lorrigan,
~@~~~
MANITOWOC Heat---300-012-42x---12-17-3 ~ WP-Justin Stenzel,
--------------------------------------------------------------------------------------------------------------

======================================================================================================================================================

SATURDAY, MAY 23rd, 2015

--------------------------------------------------------------------------------------------------------------
12:00pm, At "Field of Dreams" Field, Sheboygan

{3-Stars: --- *1 - Tyler Ebben {SGB} --- *2 - Alex Nelson {SGB} --- *3 - Weston Nelson {SGB}

ALGOMA Guins---000-031-012---7-9-2
-
PITCHING: [IP-H-ER-BB-Ks] --- LP-Justin Alexander, [8.0-17-5-6-7]
-
BATTING: [AB-R-H-RBI] --- Sam Koss, 4-0-0-0; Craig Kirchman, 5-0-1-0; Alex Karas, 5-1-1-0; Chad LaLuzerne, 4-2-1-1; Merrick Griffin, 4-1-2-0; Justin Alexander, 5-0-2-1; Jake LeBotte, 2-1-1-0; Riley Brillo, 4-1-1-1; J.R. Pigeon, 2-1-0-1; ~ LOB-12 ~ Totals: 35-7-9-2;

~@~~~

SHEBOYGAN Braves---401-012-01x---9-17-3
-
PITCHING: [IP-H-ER-BB-Ks] --- WP-Tyler Ebben, [9.0-9-4-5-10]
-
BATTING: [AB-R-H-RBI] --- Ryan Hamm, 5-0-2-0; Nick Nelson, 5-2-2-0; Danny Dicart, 5-2-2-0; Alex Nelson, 5-1-2-2; Weston Nelson, 4-3-2-1; Santo Medina, 4-1-2-1; Tyler Ebben, 4-0-3-4; Taylor Ebben, 5-0-2-0; Ben Gordon, 3-0-0-0; ~ LOB-11 ~ Totals: 40-9-17-2;
--------------------------------------------------------------------------------------------------------------

======================================================================================================================================================

WEDNESDAY, MAY 27th, 2015

--------------------------------------------------------------------------------------------------------------
7:30pm, At Municipal Field, Manitowoc

TWO RIVERS Polar Bears---122-210-004---12-10-1 ~ WP-Derek Klarkowski
~@~~~
MANITOWOC Heat---002-000-012---5-8-3 ~ LP-Tom Eckhardt,
--------------------------------------------------------------------------------------------------------------
8:00pm, At Memorial Park, Howards Grove

{3-Stars: --- *1 - Brady Callahan {HGR} --- *2 - Austin Edge {HGR} --- *3 - Cole Reinemann {HGR}

BRANCH Blaze---000-000-020---2-3-2
-
PITCHING: [IP-H-ER-BB-Ks] ---LP-Jon Roberts, [6.0-7-1-1-2] --- Brandon Glaeser, [2.0-0-0-0-0]
-
BATTING: [AB-R-H-RBI] --- Dan Berres, 3-0-0-0; Zach Berries, 3-0-0-0; Brandon Glaeser, 4-0-0-0; Ben Olson, 4-0-0-0; Ryan "Ace" Lindner, 4-1-1-0; Brent Robinson, 4-0-1-0; Matt Damp, 3-0-0-0; Jon Roberts, 2-0-0-0; Jason Yaeger, 1-1-0-0; Luke Kiel, 3-0-1-1; AJ Lorrigan, 0-1-0-0; ~ LOB-4 ~ Totals: 31-2-3-2;

~@~~~

HOWARDS GROVE Riverdogs---100-030-000---4-7-1
-
PITCHING: [IP-H-ER-BB-Ks] --- WP-Austin Edge, [8.0-3-0-2-4] --- SV-Eric Dickmyer, [1.0-0-0-0-0]
-
BATTING: [AB-R-H-RBI] --- Noah Steines, 4-1-0-0; Brady Callahan, 4-1-2-1; Cole Reinemann, 3-0-2-1; Ashton Holzman, 3-0-0-1; Sterling Dixon, 4-0-1-0; Austin Edge, 4-0-1-0; Eric Dickmyer, 3-1-1-0; Ryan Halverson, 3-0-0-0; David Green, 3-1-0-1; ~ LOB-5 ~ Totals: 31-4-4-1;
--------------------------------------------------------------------------------------------------------------

======================================================================================================================================================

FRIDAY, MAY 29th, 2015

--------------------------------------------------------------------------------------------------------------
7:30pm, At Memorial Field, Kewaunee

LITTLE CHUTE Bandits
~@~~~-----------------[PPD]
KEWAUNEE Chiefs
--------------------------------------------------------------------------------------------------------------

======================================================================================================================================================

SATURDAY, MAY 30th, 2015

--------------------------------------------------------------------------------------------------------------
2:00pm, At Field of Dreams, Sheboygan

MANITOWOC Heat
~@~~~----------------------------[PPD]
SHEBOYGAN Braves
--------------------------------------------------------------------------------------------------------------
4:00pm, At Recreation Park, Branch

KEWAUNEE Chiefs
~@~~~----------------------------[PPD]
BRANCH Blaze

Make-Up, Date: Saturday, July 11th, 3:00pm,
--------------------------------------------------------------------------------------------------------------

======================================================================================================================================================

SUNDAY, MAY 31st, 2015

--------------------------------------------------------------------------------------------------------------
1:00pm, At Memorial Park, Howards Grove

{3-Stars: --- *1 - Alex Kueck {LCB} --- *2 - Dan Rothbauer {LCB} --- *3 - Sterling Dixon {HGR}

LITTLE CHUTE Bandits---303-101-221---13-13-4
-
PITCHING: [IP-H-ER-BB-Ks] --- WP-Nate Mulzen, [6.0-9-3-6-3] --- SV-Mark Carew, [3.0-4-0-0-4]
-
BATTING: [AB-H-R-RBI] --- Mitch Ciske, 4-2-2-0; Caleb Emmer, 3-1-0-0; Dan Rothbauer, 6-1-2-2; Spencer Miller, 5-1-1-1; Joe Huss, 6-1-1-2; Kyle Biese, 5-2-1-0; Alex Kueck, 5-3-4-1; Nick Penn, 5-0-1-2; Nick Nicholson, 3-0-0-0; Mark Carew, 0-0-0-0; Nate Mulzen, 0-0-0-0; ~ LOB-12 ~ Totals: 37-4-12-4

~@~~~

HOWARDS GROVE Riverdogs---200-011-000---4-10-0
-
PITCHING: [IP-H-ER-BB-Ks] --- LP-Eric Dickmeyer, [2.0-3-3-1-0] --- Ashton Holzman, [7.0-10-7-5-4]
-
BATTING: [AB-R-H-RBI] --- Noah Steines, 5-2-3-0; Brady Callahan, 3-0-2-0; Cole Reinemann, 3-0-1-0; Ashton Holzman, 3-1-0-0; Sterling Dixon, 5-1-3-2; Lewis Halverson, 3-0-1-0; Eric Dickmeyer, 2-0-2-1; Ryan Halverson, 4-0-0-0; David Gordon, 3-0-0-0; ~ LOB-9 ~ Totals: 42-13-13-0;

(Attn: 25) - (Concession) - (No PA) - (Weather: Cool & Windy)
--------------------------------------------------------------------------------------------------------------
5:00pm, At Recreation Park, Branch

{3-Stars: --- *1 - Austin Newberg {MTH} --- *2 - Jake Woolsey {MTH} --- *3 - Nick Westergard {MTH}

MANITOWOC Heat---301-002-002---8-15-1
-
PITCHING: [IP-H-ER-BB-Ks] --- WP-Nick Westergard, [6.0-6-2-6-5] --- Josh Shimon, [2.0-3-2-1-0] --- Justin Stenzel, [1.0-0-0-1-1]
-
BATTING: [AB-R-H-RBI] --- Al Keith, 5-1-0-0; Justin Stenzel, 5-1-2-0; Nick Westergard, 5-2-2-0; Jake Woolsey, 5-1-4-1; Austin Newberg, 5-1-2-3; Chad Schrank, 5-0-2-1; Brent Lindholm, 5-1-1-0; Casey Stangel, 0-0-0-0; Chris Froehlich, 5-1-0-0; Josh Shimon, 0-0-0-0; Adam Oakland, 4-0-2--1; ~ LOB-6 ~ Totals: 41-8-15-1;

~@~~~

BRANCH Blaze---000-002-002---4-9-5
-
PITCHING: [IP-H-ER-BB-Ks] --- LP-AJ Lorrigan, [9.0-15-5-2-6]
-
BATTING: [AB-H-R-RBI] --- Dan Berries, 3-0-1-2; Zach Berries, 2-0-0-0; Brandon Glaeser, 4-0-0-0; Ben Olson, 5-0-1-0; Jason Yaeger, 4-1-2-0; Luke Kiel, 4-0-2-0; Matt Damp, 5-2-0-1; Mitch Damp, 1-1-1-0; Jon Roberts, 5-0-2-1; AJ Lorrigan, 0-0-0-0; ~ LOB-13 ~ Totals: 33-4-9-5;

(Attn: 50) - (Concessions, Burgers/Brats) - (Weather, Sunny, Windy, 54 Degrees)
--------------------------------------------------------------------------------------------------------------

======================================================================================================================================================

WEDNESDAY, JUNE 3rd, 2015

--------------------------------------------------------------------------------------------------------------
7:30pm, At Walsh Field, Two Rivers

MANITOWOC Heat---[1-6-1]
~@~~~
TWO RIVERS Polar Bears---[3-7-0] ~ WP-Luke Mandich,
--------------------------------------------------------------------------------------------------------------
7:30pm, At Memorial Field, Kewaunee

{3-Stars: --- *1 - Brandon Hintz {DDB} --- *2 - Mitch Kouba {DDB} --- *3 - Jereme Jensen {DDB}

DENMARK Devilbears---104-200-310---11-11-2
-
PITCHING: [IP-H-ER-BB-Ks] --- WP-Mitch Kouba, [6.0-5-0-1-8] --- Jereme Jensen, [2.0-4-3-3-0] --- Jeff Stueck, [1.0-0-0-0-1]
-
BATTING: [AB-R-H-RBI] --- Brandon Hintz, 5-2-3-0; Alex Michiels, 5-1-0-0; Jereme Jensen, 3-2-2-0; Brad Daniels, 2-1-0-1; Sam Crawford, 2-1-1-1; Max Loberger, 5-1-1-1; Cory Rhodeza, 4-0-1-0; Trevor DePas, 3-1-1-1; Jason Gibson, 2-0-0-0; Ryan Stuffle, 5-1-2-0; Mitch Kouba, 4-0-1-0; ~ LOB-15 ~ Totals: 40-11-11-1;

~@~~~

KEWAUNEE Chiefs---000-101-300---5-9-3
-
PITCHING: [IP-H-ER-BB-Ks] --- LP-Alex Mehn, [4.0-8-6-2-3] --- Derek Corniles, [3.0-2-2-5-1] --- Alex Corniles, [2.0-1-0-3-1]
-
BATTING: [AB-R-H-RBI] --- Alex Mehn, 4-0-1-0; Kyle Thompson, 5-1-0-0; Matt Miller, 4-1-1-0; Alex Honzik, 2-1-1-1; Tim Struck, 3-1-1-1; Derek Corniles, 4-0-0-0; Alex Corniles, 4-0-1-2; Jared Dribek, 3-0-0-0; Nick Langer, 4-0-1-0; Doug Delebreax, 4-1-1-0; ~ LOB-8 ~ Totals: 37-5-7-2;

(Attn: 25) - (Concessions) - (PA, Eddie Coppersmith) - (Weather: 49 degrees)

[Umpires: Dale Raisleger. Plate & Scott Polifka, Bases]
--------------------------------------------------------------------------------------------------------------

======================================================================================================================================================

FRIDAY, JUNE 5th, 2015

--------------------------------------------------------------------------------------------------------------
7:30pm, At Perry Field, Algoma

{3-Stars: --- *1 - Dan Rothbauer {LCB} --- *2 - Alex Kueck {LCB} --- *3 - Nick Kita {ALG}

LITTLE CHUTE Bandits---005-010-300---9-10-2
-
PITCHING: [IP-H-ER-BB-Ks] --- WP-Mark Carew,
-
BATTING: [AB-R-H-RBI] --- Mitch Ciske, 4-1-1-1; Alex Kueck, 4-2-2-1; Spencer Miller, 4-2-1-1; Dan Rothbauer, 5-2-3-3; Kyle Biese, 3-0-0-0; Trevor Koslowski, 2-0-0-0; Alex Nicholson, 5-0-0-0; Nate Penn, 5-0-0-0; Mark Carew, 0-0-0-0; Nick Nicholson, 2-1-2-1; Adam Moyer, 4-1-1-0; ~ LOB-7 ~ Totals: 38-9-10-2;

~@~~~

ALGOMA Guins---300-000-050---8-9-0
-
PITCHING: [IP-H-ER-BB-Ks] --- LP-Nick Kita,
-
BATTING: [AB-R-H-RBI] --- Sam Koss, 4-1-1-2; Craig Kirchman, 4-1-0-1; Nick Kita, 3-1-2-0; Chad LaLuzerne, 5-0-1-0; Alan Karas, 5-1-1-0; Merrich Griffin, 5-1-2-0; Justin Alexander, 2-1-0-0; Jake LeBotte, 2-1-1-1; Riley Bricco, 4-1-1-1; ~ LOB-9 ~ Totals: 34-8-9-0;
--------------------------------------------------------------------------------------------------------------
7:30pm, At Memorial Field, Kewaunee

{3-Stars: --- *1 - Doug Delebreax {KWC} --- *2 - Alex Honzik {KWC} --- *3 - Nick Nelson {SBG}

SHEBOYGAN Braves---000-100-100---2-5-0
-
PITCHING: [IP-H-ER-BB-Ks] --- LP-Nick Nelson, [8.2-7-3-4-8]
-
BATTING: [AB-R-H-RBI] --- Ryan Hamm, 4-0-1-0; Nick Nelson, 4-1-1-0; Alex Nelson, 3-0-0-1; Santos Metine, 3-1-1-0; Manny Ramiot, 2-0-0-0; Arturo Contreo, 1-0-0-0; Nick Loger, 4-0-0-1; Nick Wilson, 4-0-0-0; Scotty Heinrich, 3-0-0-0; tyler Ebben, 3-0-2-0; ~ LOB-3 ~ Totals: 31-2-5-0;

~@~~~

KEWAUNEE Chiefs---000-100-002---3-7-1
-
PITCHING: [IP-H-ER-BB-Ks] --- WP-Caleb Johnson, [1.0-0-0-1-2] --- Alex Honzik, [8.0-5-1-0-11]
-
BATTING: [AB-R-H-RBI] --- Alex Mehn, 3-0-1-0; Kyle Thompson, 4-0-0-0; Alex Honzik, 3-0-0-0; Tyler Wotachek, 4-0-0-0; Matt Miller, 3-1-1-0; Tim Struck, 0-0-0-0; Alex Corniles, 4-0-1-0; Jared Pribem, 3-1-2-1; Cole Kittel, 3-0-0-0; Caleb Johnson, 0-1-0-0; Doug Delebreaux, 5-0-4-2; ~ LOB-5 ~ Totals: 32-3-7-1;

(Attn: 30) - (Concessions) - (PA, Eddie Coppersmith) - (Weather: Windy, 52 Degrees)

[Umpires: Scott Polifka, Plate & Dale Raisleger, Bases]
--------------------------------------------------------------------------------------------------------------
7:30pm, At Village Park, Casco

DENMARK Devilbears---011-100-300---6-6-3
-
PITCHING: [IP-H-ER-BB-Ks] --- LP-Trevor DePas, [2.0-8-6-5-1] --- Jereme Jensen, [4.0-3-1-3-0] --- Peter Aerts, [2.0-2-1-0-4]
-
BATTING: [AB-R-H-RBI] --- Sam Crawford, 1-0-0-0; Kevin Konkol, 1-1-1-0; Ryan Stuffel, 1-0-0-0; Brandon Hintz, 3-0-0-0; alex Michiels, 4-0-1-1; Jereme Jensen, 3-1-0-0; Peter Aerts, 4-1-2-1+HR; Brad Daniels, 3-1-0-1; Max Loberger, 4-1-1-0; Trevor DePas, 3-0-0-0; Shane Michiels, 1-1-0-1; Cody Rhodezay, 3-0-1-2; ~ Totals: 31-6-6-3;

~@~~~

CASCO Athletics---611-000-02x---10-13-1
-
PITCHING: Not Available
-
BATTING: Not Available
--------------------------------------------------------------------------------------------------------------

======================================================================================================================================================

SATURDAY, JUNE 6th, 2015

--------------------------------------------------------------------------------------------------------------
2:00pm, At "Field of Dreams" Field, Sheboygan

{3-Stars: --- *1 - Tyler Ebbers {SBG} --- *2 - Santos Medina {SBG} --- *3 - Alex Nelson {SBG}

BRANCH Blaze---010-000-000---1-1-3
-
PITCHING: [IP-H-ER-BB-Ks] --- LP-Jon Roberts, [8.0-7-2-4-4]
-
BATTING: [AB-R-H-RBI] --- Brandon Glaeser, 4-0-0-0; Ben Olson, 3-0-0-0; Dan Berries, 4-0-0-0; Jason Yaeger, 3-0-0-0; Zach Berries, 3-1-0-0; Ryan "Ace" Lindner, 4-0-0-0; Luke Kiel, 2-0-0-0; Hunter Saubert, 3-0-1-1; Matt Damp, 4-0-0-0; Jon Roberts, 0-0-0-0; ~ LOB-7 ~ Totals: 30-1-1-3;

~@~~~

SHEBOYGAN Braves---200-000-00x---2-7-3
-
PITCHING: [IP-H-ER-BB-Ks] --- WP-Alex Nelson, [5.0-1-1-4-4] --- Nick Wilson, [1.0-0-0-0-0] --- SV-Tyler Ebbers, [3.0-0-0-1-7]
-
BATTING: [AB-R-H-RBI] --- Ryan Hamm, 5-0-1-0; Nick Wilson, 0-0-0-0; Manny Ramirez, 4-0-2-0; Alex Nelson, 4-1-0-0; Tyler Ebbers, 4-1-2-1; Santos Medina, 4-0-2-1; Dane Blake, 3-0-0-0; Nick Lorge, 4-0-0-0; Mark Hempe, 2-0-0-0; Scotty Heinrich, 3-0-0-0; ~ LOB-12 ~ Totals: 33-2-7-3;
--------------------------------------------------------------------------------------------------------------
7:30pm, At Municipal Field, Manitowoc

CASCO Athletics---[?]
~@~~~
MANITOWOC Heat---[?]
--------------------------------------------------------------------------------------------------------------
7:30pm, At Perry Field, Algoma

{3-Stars: --- *1 - Justin Alexander {ALG} --- *2 - Craig Kirckman {ALG} --- *3 - Noah Steines {HGR}

HOWARDS GROVE Riverdogs---001-000-200---3-10-3
-
PITCHING: [IP-H-ER-BB-Ks] --- LP-Brady Callihan, [8.0-7-3-6-8]
-
BATTING: [AB-R-H-RBI] --- Noah Steines, 5-1-3-0; Brady Callihan, 5-0-1-1; Cole Reinemann, 5-0-0-0; Sterling Dixon, 5-1-1-0; Ashton Holzman, 4-1-1-0; P.J. Weber, 4-0-2-0; Tyler Martin, 1-0-0-0; Ryan Halverson, 3-0-1-0; Eric Dickmeier, 4-0-1-0; David Green, 3-0-0-0; ~ LOB-11 ~ Totals: 39-3-10-3;

~@~~~

ALGOMA Guins---200-013-02x---8-7-3
-
PITCHING: [IP-H-ER-BB-Ks] --- WP-Justin Alexnader, [6.2-8-2-2-6] --- Chad LaLuzerne, [2.1-2-0-1-3]
-
BATTING: [AB-R-H-RBI] --- Sam Koss, 4-2-0-0; Craig Kirchman, 4-4-2-0; Chad LaLuzerne, 4-0-0-1; Justin Alexander, 5-0-3-0; Merrick Griffin, 4-0-2-0; Austen Dart, 5-0-0-0; Riley Bricco, 0-0-0-0; Jake LeBotte, 4-0-0-0; Kornell Draves, J.R. Pigeon, 2-1-0-0; ~ LOB-10 ~ Totals: 36-8-7-3;

(Attn: 30) - (Concessions) - (No PA) - (Weather: 48 Degrees)
-
[Umpires: Jon Ledvina, Plate & Rory Grossel, Bases]
--------------------------------------------------------------------------------------------------------------

======================================================================================================================================================

SUNDAY, JUNE 7th, 2015

--------------------------------------------------------------------------------------------------------------
12:00pm, At "Field of Dreams" Field, Sheboygan

KEWAUNEE Chiefs---[5]
~@~~~
SHEBOYGAN Braves---[15]
--------------------------------------------------------------------------------------------------------------
1:00pm, At Memorial Park, Howards Grove

CASCO Athletics---[?]
~@~~~
HOWARDS GROVE Riverdogs---[?]
--------------------------------------------------------------------------------------------------------------
2:00pm, At Recreation Park, Branch

{3-Stars: --- *1 - Chris Rohr {TWR} --- *2 - Chris Casper {TWR} --- *3 - Zach Berries {BBZ}

TWO RIVERS Polar Bears---000-101-010---3-9-0
-
PITCHING: [IP-H-ER-BB-Ks] --- WP-Chris Casper, [ 8.0-2-1-2-2] --- SV-Luke Mandic, [1.0-0-0-0-2]
-
BATTING: [AB-R-H-RBI] --- Chris Casper, 5-0-1-0; Jared Surman, 5-1-2-0; Mike Ruzek, 4-0-2-0; Jake Jeanquart, 4-1-0-0; AJ Dollinger, 4-1-1-0; Chris Rohr, 3-0-2-2; Brandon bartels, 2-0-0-0; Tyler Wilke, 4-0-1-1; Derek Klarkowski, 2-0-0-0; Luke Mandic, 0-0-0-0; ~ LOB-9 ~ Totals: 33-3-9-0;

~@~~~

BRANCH Blaze---010-000-000---1-2-0
-
PITCHING: [IP-H-ER-BB-Ks] --- LP-Brandon Glaeser, [6.0-4-2-6-4] --- AJ Lorrigan, [3.0-5-1-2-1]
-
BATTING: [AB-R-H-RBI] --- Brandon Glaeser, 4-0-0-0; Hunter Saubert, 4-0-0-0; Ben Olson, 3-0-0-0; Jason Yaeger, 2-1-0-0; Dan Berries, 2-0-0-0; Ryan "Ace" Lindner, 3-0-0-0; Luke Kiel, 3-0-0-0; Zach Berries, 3-0-2-0; Jon Roberts, 1-0-0-0; Peter Menges, 1-0-0-0; AJ Lorrigan, 0-0-0-0; ~ LOB-1 ~ Totals: 26-1-2-0;

--------------------------------------------------------------------------------------------------------------

======================================================================================================================================================

WEDNESDAY, JUNE 10th, 2015

--------------------------------------------------------------------------------------------------------------
7:00pm, At Memorial Field, Kewaunee

HOWARDS GROVE Riverdogs---[7]
~@~~~
KEWAUNEE Chiefs---[5]
--------------------------------------------------------------------------------------------------------------
7:30pm, At Perry Field, Algoma

{3-Stars: --- *1 - Ethan Bemowski {ALG} --- *2 - Merrick Griffin {ALG} --- *3 - Chad LaLuzerne {ALG}

BRANCH Blaze---020-002-000---4-8-4
-
PITCHING: [IP-H-ER-BB-Ks] --- LP-AJ Lorrigan, [8.0-10-4-0-7]
-
BATTING: [AB-R-H-RBI] --- Brandon Glaeser, 4-0-1-0; Dan Berries, 4-0-0-0; Jason Yaeger, 4-1-2-0; Hunter Saubert, 4-2-2-1; Ben Olson, 4-1-1-0; Zach Berries, 3-0-1-1; Ryan "Acer" Lindner, 4-0-1-1; Jon Roberts, 3-0-0-1; AJ Lorrigan, 3-0-0-0; ~ LOB-2 ~ Totals: 33-4-8-4;

~@~~~

ALGOMA Guins---103-000-01x---5-10-2
-
PITCHING: [IP-H-ER-BB-Ks] --- Ethan Bemowski, [9.0-8-2-0-8]
-
BATTING: [AB-R-H-RBI] --- Sam Koss, 4-1-1-0; Craig Kirchman, 3-0-0-0; Nick Kita, 3-2-2-1; Chad LaLuzerne, 4-1-2-1; Merrick Griffin, 3-1-1-2; Ethan Bemowski, 3-0-2-1; Justin Alexander, 4-0-2-0; Jake LeBotte, 3-0-0-0; Riley Bricco, 4-0-0-0; ~ LOB-7 ~ Totals: 31-5-10-2;
--------------------------------------------------------------------------------------------------------------
7;30pm, At Municipal Field, Manitowoc

DENMARK Devilbears---010-100-245---13-15-3
-
PITCHING: [IP-H-ER-BB-Ks] --- WP-Trevor DePas, [7.0-4-1-1-7] --- Max Loberger, [1.0-0-0-0-2] --- Jeff Stueck, [1.0-0-0-0-3]
-
BATTING: [AB-R-H-RBI] --- Ryan Stuffel, 2-1-2-1; Richard Theurwachter, 1-1-1-0; Tyler Nelson, 5-2-3-4; Jereme Jensen, 5-0-1-1; Brad Daniels, 5-0-0-0; Max Loberger, 5-2-1-0; Cody Rhodezay, 2-2-1-0; Trevor DePas, 4-1-2-2; Mitch Kouba, 5-2-2-1; Jacob Gilson, 2-0-0-0; Sam Crawford, 5-2-2-3; ~ Totals: 41-13-15-3;

~@~~~

MANITOWOC Heat---001-100-200---4-4-4
-
PITCHING: [Not Available]
-
BATTING: [Not Available]
--------------------------------------------------------------------------------------------------------------
7:30pm, At Walsh Field, Two Rivers

CASCO Athletics---[2-6-3]
~@~~~
TWO RIVERS Polar Bears---[1-5-2]
--------------------------------------------------------------------------------------------------------------

======================================================================================================================================================

FRIDAY, JUNE 12th, 2015

--------------------------------------------------------------------------------------------------------------
"Jack O' Diamonds" Kewaunee County, "Rivalry Series"

7:30pm, At Perry Field, Algoma (7in)

{3-Stars: --- *1 - Caleb Williems {CCA} --- *2 - Joe Mleziva {CCA} --- *3 - Nick Sullivan {CCA}

CASCO Athletics---005-100-4---10-14-1
-
PITCHING: [IP-H-ER-BB-Ks] --- WP-Caleb Willems, [7.0-3-0-0-7]
-
BATTING: [AB-R-H-RBI] --- Caleb Williems, 5-2-2-0; Joe Mleziva, 4-2-4-0; Shaun Corroy, 4-2-2-2; Nick Sullivan, 4-1-2-3; Aaron Jarowski, 4-0-2-1; Kyle Mahlik, 3-1-1-2; Doug Swanson, 3-0-0-0; Chad Phillips, 0-0-0-1; Trevor Kinnard, 4-0-1-1; Justin Zellner, 4-0-0-0; ~ LOB-7 ~ Totals: 35-10-14-1;

~@~~~

ALGOMA Guins---000-000-0---0-3-1
-
PITCHING: [IP-H-ER-BB-Ks] --- LP-Chad LaLuzerne, [6.0-13-9-0-3] --- Riley Bricco, [1.0-1-1-1-0]
-
BATTING: [AB-R-H-RBI] --- Austin Rohe, 3-0-0-0; Craig Kirchman, 3-0-1-0; Chad LaLuzerne, 3-0-0-0; Ethan Bemowski, 3-0-0-0; Justin Alexander, 3-0-1-0; Austen Dart, 3-0-0-0; Jake LeBotte, 2-0-1-0; Tyler Wagner, 2-0-0-0; Riley Bricco, 2-0-0-0; ~ LOB-3 ~ Totals: 24-0-3-1;

(Attn: 65) - (Concessions, Great Hot Dogs) - (No PA) - Weather: 58 degrees)

[Umpires: Kevin Mettler, Plate & Phil Ducat, Bases]
--------------------------------------------------------------------------------------------------------------
7:30pm, At High School Field, Denmark

{3-Stars: --- *1 - Brandon Bartels {TWR} --- *2 - Shad Hintz {TWR} --- *3 - Luke Mandich {TWR}

TWO RIVERS Polar Bears---010-100-010---3-6-0
-
PITCHING: [IP-H-ER-BB-Ks] --- WP-Luke Mandich, [8.0-3-0-2-7] --- SV-Chris Casper, [1.0-0-0-0-1]
-
BATTING: [AB-R-H-RBI] --- Chris Casper, 4-0-0-0; Derek Klarkowski, 2-0-0-0; Charlie Kiel, 3-0-1-0; Casey Bartels, 1-0-0-0; Chris Rohr, 4-0-0-0; Brandon Bartels, 4-0-1-2; Tyler Wilke, 4-0-0-0; A.J. Dollinger, 4-0-0-0; Shad Hintz, 2-1-2-1; Mike Ruzek, 3-2-2-0; ~ Totals: 31-3-6-0;

~@~~~

DENMARK Devilbears---000-000-000---0-3-0
-
PITCHING: [IP-H-ER-BB-Ks] --- LP-Mitch Kouba, [6.0-3-2-3-3] --- Jeff Stueck, [2.0-2-1-0-2]
-
BATTING: [AB-R-H-RBI] --- Kevin "The Old Timer" Konkol, 1-0-0-0; Ryley Pelishek, 1-0-0-0; Tanner Umentum, 1-0-1-0; Alex Michiels, 4-0-0-0; Shane Michiels, 4-0-0-0; Peter Aerts, 4-0-2-0; Max Loberger, 3-0-0-0; Jereme Jensen, 2-0-0-0; Trevor DePas, 2-0-0-0; Cody Rhodezay, 2-0-0-0; Mitch Kouba, 1-0-0-0; ~ Totals: 29-0-3-0;
--------------------------------------------------------------------------------------------------------------
7:30pm, At Van Lieshout Park, Little Chute

BRANCH Blaze---[?]
~@~~~
LITTLE CHUTE Bandits---[?]
--------------------------------------------------------------------------------------------------------------
7:30pm, At Municipal Field, Manitowoc

SHEBOYGAN Braves---[?]
~@~~~
MANITOWOC Heat---[?]
--------------------------------------------------------------------------------------------------------------

======================================================================================================================================================

SATURDAY, JUNE 13th, 2015

--------------------------------------------------------------------------------------------------------------
1:00pm, At Recreation Park, Branch

ALGOMA Guins---[4]
~@~~~----------------Game suspended in the 4th inning, Rain: To be completed, July 28th, 7:30, at Algoma
BRANCH Blaze---[2]
--------------------------------------------------------------------------------------------------------------

======================================================================================================================================================

SUNDAY, JUNE 14th, 2015

--------------------------------------------------------------------------------------------------------------
12:00pm, At "Field of Dreams" Field, Sheboygan

CASCO Athletics---[?]
~@~~~
SHEBOYGAN Braves---[?]
--------------------------------------------------------------------------------------------------------------
1:00pm, At Memorial Park, Howards Grove

MANITOWOC Heat---[?]
~@~~~
HOWARDS GROVE Riverdogs---[?]
--------------------------------------------------------------------------------------------------------------

======================================================================================================================================================

MONDAY, JUNE 15th, 2015

--------------------------------------------------------------------------------------------------------------
7:30pm, At High School Field, Denmark

LITTLE CHUTE Bandits
~@~~~----------------------[PPD]
DENMARK Devilbears

Make-Up, Wed. June 17th, 8:00pm,
--------------------------------------------------------------------------------------------------------------

======================================================================================================================================================

TUESDAY, JUNE 16th, 2015

--------------------------------------------------------------------------------------------------------------
7:30pm, At Van Lieshout Park, Little Chute

ALGOMA Guins
~@~~~---------------------Game PPD
LITTLE CHUTE Bandits

Make-Up Date: [?]
--------------------------------------------------------------------------------------------------------------

======================================================================================================================================================

WEDNESDAY, JUNE 17th, 2015

--------------------------------------------------------------------------------------------------------------
7:30pm, At Walsh Field, Two Rivers

HOWARDS GROVE Riverdogs---[2-7-3]
~@~~~
TWO RIVERS Polar Bears---[12-14-0]
--------------------------------------------------------------------------------------------------------------
7:30pm, At Memorial Field, Kewaunee

BRANCH Blaze---010-000-001----2-5-1
-
PITCHING: [IP-H-ER-BB-Ks] --- LP-Jon Roberts, [8.0-6-4-2-2]
-
BATTING: [AB-R-H-RBI] --- Dan Berries, 2-0-0-0; Brandon Glaeser, 5-0-1-0; Jason Yaeger, 4-0-1-1; Hunter Saubert, 5-0-0-0; Zach Berries, 4-0-0-0; Ryan "Acer" Lindner, 3-1-1-0; Brent Robinson, 4-0-2-0; Luke Kiel, 3-0-0-0; Jon Roberts, 1-0-0-0; Ben Olson, 2-1-0-1; ~ LOB-11 ~ Totals: 33-2-5-1;

~@~~~

KEWAUNEE Chiefs---003-010-00x---4-6-2
-
PITCHING: [IP-H-ER-BB-Ks] --- WP-Tanner Ledvina, [6.0-4-1-3-8] --- SV-Alex Cronils, [3.0-1-1-3-2]
-
BATTING: [AB-R-H-RBI] --- Alex Mehn, 4-2-2-1; Kyle Thompson, 3-0-0-1; Matt Miller, 4-0-2-2; Jon Pilgrim, 0-0-0-0; Alex Honzik, 4-0-0-0; Alex Cornils, 3-0-0-0; Jared Pribek, 2-0-0-0; Josh Lamock, 3-0-0-0; Cole Kittell, 3-1-1-0; Derek Cornils, 0-0-0-0; Tanner Ledvina, 2-1-1-0; Tim Struck, 0-0-0-0; ~ LOB-6 ~ Totals: 28-4-6-2;
--------------------------------------------------------------------------------------------------------------
8:00pm, At High School Field, Denmark

LITTLE CHUTE Bandits---000-004-200-00---6-14-3
-
PITCHING: Not Available
-
BATTING: Not Available

~@~~~

DENMARK Devilbears---000-320-100-01---7-13-2
-
PITCHING: [IP-H-ER-BB-Ks] --- WP-Jereme Jensen, [3.0-4-0-0-4] --- Jake Reetz, [4.1-6-2-1-1] --- Riley Pelishek, [2.0-1-0-2-3] --- Jeff Stueck, [1.1-2-2-2-4] --- Mitch Kouba, [0.1-0-0-0-0]
-
BATTING: [AB-R-H-RBI] --- Jeff Reetz, 2-0-0-1; Ryan Stuffel, 2-0-1-1; Jeff Stueck, 1-0-0-0; Brandon Hintz, 5-0-0-0; Tanner Umentum, 6-1-3-0; Peter Aerts, 4-1-1-0; Jeneme Jensen, 4-2-2-0; Kevin Konkol, 4-1-1-1; Max Loberger, 4-0-2-2; Riley Pelishek, 0-0-0-0; Mitch Kouba, 5-1-1-1; Trevor DePas, 5-0-2-1; ~ Totals: 42-7-13-2;
--------------------------------------------------------------------------------------------------------------

======================================================================================================================================================

FRIDAY, JUNE 19th, 2015

--------------------------------------------------------------------------------------------------------------
"Jack O' Diamonds" Kewaunee County, "Rivalry Series"

7:00pm, At Memorial Field, Kewaunee

{3-Stars: --- *1 - Jeremy Rubins {CCA} --- *2 - Caleb Williems {CCA} --- *3 - Alex Honzik {KWC}

CASCO Athletics---000-110-002-01---5-10-1
-
PITCHING: [IP-H-ER-BB-Ks] --- WP-Trevor Kinnard, [2.0-0-0-0-4] --- Caleb Williems, [9.0-14-4-1-11]
-
BATTING: [AB-R-H-RBI] --- Caleb Williems, 6-2-3-2+HR; Lucas Tlachac, 6-1-2-0; Jeremy Rubins, 5-1-2-1; Chad Phillips, 5-0-0-1; Trevor Kinnard, 3-0-0-0; Ryan Plook, 4-0-0-0; Mitch Bercean, 4-0-0-0; Doug Swanson, 5-0-1-0; Justin Zellner, 5-1-0-0; ~ LOB-11 ~ Totals: 43-5-10-1;

~@~~~

KEWAUNEE Chiefs---000-030-100-00---4-14-1
-
PITCHING: [IP-H-ER-BB-Ks] --- LP-Alex Honzik, [1.0-2-1-0-1] --- Alex Mehn, [10.0-8-4-6-6]
-
BATTING: [AB-R-H-RBI] --- Alex Mehn, 6-1-2-0; Kyle Thompson, 6-2-3-0; Matt Miller, 6-1-2-0; Alex Honzik, 5-0-2-3; Tyler Wotachek, 4-0-3-1; Alex Cornils, 4-0-0-0; Jarred Pribek, 5-0-0-0; Nick Langer, 5-0-2-0; Josh Lahalk, 4-0-0-0; Derek Cornils, 1-0-0-0; ~ LOB-10 ~ Totals: 45-4-14-1;
--------------------------------------------------------------------------------------------------------------
7:30pm, At Van Lieshout Park, Little Chute

MANITOWOC Heat---[0]
~@~~~
LITTLE CHUTE Bandits---[18]
--------------------------------------------------------------------------------------------------------------
7:30pm, At High School Field, Denmark

HOWARDS GROVE Riverdogs---000-000-003---3-3-4
-
PITCHING: Not Available
-
BATTING: Not Available

~@~~~

DENMARK Devilbears---100-005-00x---6-5-3
-
PITCHING: [IP-H-ER-BB-Ks] --- WP-Mitch Kouba, [7.0-2-0-1-5] --- Trevor DePas, [2.0-2-0-4-4]
-
BATTING: [AB-R-H-RBI] --- Sam Crawford, 2-0-0-0; Ryan Steffel, 1-0-0-0; Jacob Gilson, 0-0-0-0; Jeff Stueck, 1-0-0-0; Richard Theuerwachter, 1-0-1-0; Brandon Hintz, 2-1-0-0; Alex Michiels, 4-1-0-0; Peter Aerts, 3-1-0-0; Kevin Konkol, 2-1-1-1; Max Loberger, 4-1-1-1; Jereme Jensen, 3-0-0-0; Cody Rhodezay, 2-1-0-0; Trevor DePas, 3-0-1-2; Mitch Kouba, 3-0-2-1; ~ LOB-? ~ Totals: 31-6-6-3;
--------------------------------------------------------------------------------------------------------------
--------------------------------------------------------------------------------------------------------------

======================================================================================================================================================

SATURDAY, JUNE 20th, 2015

--------------------------------------------------------------------------------------------------------------
4:00pm, At Recreation Park, Branch

CASCO Athletics-----------Lose
~@~~~-----------------[Forfeit]
BRANCH Blaze-------------Win
--------------------------------------------------------------------------------------------------------------
4:00pm, At Walsh Field, Two Rivers

SHEBOYGAN Braves---[1-3-5]
~@~~~
TWO RIVERS Polar Bears---[11-10-3]
--------------------------------------------------------------------------------------------------------------

======================================================================================================================================================

SUNDAY, JUNE 21st, 2015 - "Father's Day"

--------------------------------------------------------------------------------------------------------------
12:00pm, At "Field of Dreams" Field, Sheboygan

HOWARDS GROVE Riverdogs---[14]
~@~~~
SHEBOYGAN Braves---[12]
--------------------------------------------------------------------------------------------------------------

======================================================================================================================================================

TUESDAY, JUNE 23rd, 2015

--------------------------------------------------------------------------------------------------------------
7:30pm, At Perry Field, Algoma

{3-Stars: --- *1 - Austen Dart {ALG} --- *2 - Ethan Bemowski {ALG} --- *3 - Casey Stangel {MTH}

MANITOWOC Heat---000-101-000---2-9-4
-
PITCHING: [IP-H-ER-BB-Ks] --- LP-Justin Stenzel, [5.0-6-4-1-6] --- Nate Becher, [3.0-5-3-0-2]
-
BATTING: [AB-R-H-RBI] --- Adam Oakland, 5-0-1-0; Justin Stenzel, 4-0-1-0; Nate Becher, 4-0-0-0; Brent Lindholm, 3-2-2-0; Chad Schrank, 4-0-2-0; Chris Froelich, 4-0-2-1; Casey Stangel, 2-0-2-1; Andy Froelich, 2-0-0-0; Chris Gansaw, 4-0-0-0; Evan Wirts, Jr, 4-0-0-0; ~ Totals: 36-2-9-4;

~@~~~

ALGOMA Guins---016-002-01x---10-11-1
-
PITCHING: [IP-H-ER-BB-Ks] --- Ethan Bemowski, [9.0-9-2-1-15]
-
BATTING: [AB-R-H-RBI] --- Craig Kirchman, 4-0-0-0; Nick Kita, 4-0-1-0, Ethan Bemowski, 3-1-2-1; Chad LaLuzenre, 4-2-0-0; Merrick Griffin, 3-4-2-0; Austen Dart, 5-1-4-5; Justin Alexander, 3-1-0-1; Jake LeBotte, 5-1-0-0; Riley Bricco, 4-0-2-0; ~ Totals: 35-10-11-1;
--------------------------------------------------------------------------------------------------------------

======================================================================================================================================================

WEDNESDAY, JUNE 24th, 2015

--------------------------------------------------------------------------------------------------------------
7:30pm, At Memorial Field, Kewaunee

{3-Stars: --- *1 - Luke Mandich {TWR} --- *2 - A. J. Dollinger {TWR} --- *3 - Shad Hintz {TWR}

TWO RIVERS Polar Bears---000-000-812---11-12-2
-
PITCHING: [IP-H-ER-BB-Ks] --- WP-Luke Mandich, [9.0-2-0-0-14]
-
BATTING: [AB-R-H-RBI] --- Casey Bartels, 4-1-1-2; Chris Cisler, 2-0-1-0; Chris Rohr, 5-0-2-1; Mike Ruzek, 5-1-1-2; Shad Hintz, 3-1-2-0; A.J. Dollinger, 5-1-1-3; Charlie Kiel, 3-2-0-0; Brandon Bartels, 5-1-2-2; Luke Mandich, 4-1-1-0; Derek Klarkowski, 3-2-1-1; ~ LOB-10 ~ Totals: 39-11-12-2;

~@~~~

KEWAUNEE Chiefs---000-000-000---0-2-3
-
PITCHING: [IP-H-ER-BB-Ks] --- LP-Dusty Varick, [6.2-7-7-2-6] --- Tanner Ledvina, [1.1-2-2-3-1] --- Caleb Johnson, [1.0-3-2-0-2]
-
BATTING: [AB-R-H-RBI] --- Josh Lamack, 4-0-0-0; Tanner Ledvina, 4-0-0-0; Matt Miller, 3-0-0-0; Alex Cornils, 3-0-0-0; Dusty Varick, 2-0-1-0; Jon Pilgrim, 1-0-0-0; Derek Cornils, 3-0-0-0; Nick Langer, 3-0-0-0; Cole Kittell, 3-0-0-0; Caleb Johnson, 3-0-1-0; ~ LOB-2 ~ Totals: 29-0-2-3;
--------------------------------------------------------------------------------------------------------------
7:30pm, At Village Park, Casco

LITTLE CHUTE Bandits---[2]
~@~~~
CASCO Athletics---[3]
--------------------------------------------------------------------------------------------------------------

======================================================================================================================================================

FRIDAY, JUNE 26th, 2015

--------------------------------------------------------------------------------------------------------------
6:30pm, At High School Field, Denmark

{3-Stars: --- #1 - Devon Kornowski {CCA} --- #2 - Joe Mleziva {CCA} --- #3 - Peter Aerts {DDB}

CASCO Athletics---200-000-001---3-3-1
-
PITCHING: [IP-H-ER-BB-Ks] --- WP-Lucas Stewart, [9.0-6-1-1-2]
-
BATTING: [AB-R-H-RBI] --- Nick Sullivan, 3-1-0-0; Joe Mleziva, 4-1-2-0; Devon Kornowski, 4-1-1-2; Matt Jadin, 3-0-0-0; Aaron Jarosinski, 3-0-0-0; John Mleziva, 4-0-0-0; Trevor Kinnard, 3-0-0-0; Doug Swanson, 2-0-0-0; Justin Zellner, 3-0-0-0; ~ Totals: 29-3-3-1;

~@~~~

DENMARK Devilbears---100-000-000---1-6-1
-
PITCHING: [IP-H-ER-BB-Ks] --- LP-Mitch Kouba, [9.0-3-2-2-4]
-
BATTING: [AB-R-H-RBI] --- Shane Michiels, 1-0-0-0; Jake Peetz, 0-0-0-0; Jeff Stueck, 0-0-0-0; Ben Wyngaard, 1-0-0-0; Brandon Hintz, 3-1-0-0; Jereme Jensen, 5-0-1-0; Peter Aerts, 3-0-1-1; Alex Michiels, 4-0-0-0; Brad Daniels, 4-0-1-0; Max Loberger, 4-0-2-0; Trevor DePas, 4-0-1-0; Mitch Kouba, 3-0-0-0; Cody Rhodezay, 2-0-0-0; ~ Totals: 34-1-6-1;
--------------------------------------------------------------------------------------------------------------
7:30pm, At Van Lieshout Park, Little Chute (10in)

TWO RIVERS Polar Bears---[2-4-3] ~ LP-Mike Ruzek,
~@~~~
LITTLE CHUTE Bandits---[3-6-1]
--------------------------------------------------------------------------------------------------------------
7:30pm, At Memorial Field, Kewaunee

ALGOMA Guins
~@~~~-------------------------[PPD]
KEWAUNEE Chiefs
-
Make-Up, Date: Thursday, July 16th, 6:30pm, At Perry Field, Algoma
--------------------------------------------------------------------------------------------------------------

======================================================================================================================================================

SATURDAY, JUNE 27th, 2015

--------------------------------------------------------------------------------------------------------------
2:00pm, At Village Park, Casco

SHEBOYGAN Braves
~@~~~-----------------[PPD]
CASCO Athletics
-
Make-Up, Sunday, July 12th, 2:00pm,
--------------------------------------------------------------------------------------------------------------

======================================================================================================================================================

SUNDAY, JUNE 28th, 2015

--------------------------------------------------------------------------------------------------------------
12:00pm, At "Field of Dreams" Field, Sheboygan

LITTLE CHUTE Bandits---[2]
~@~~~
SHEBOYGAN Braves---[1]
--------------------------------------------------------------------------------------------------------------
1:00pm, At Memorial Park, Howards Grove

KEWAUNEE Chiefs---[?]
~@~~~
HOWARDS GROVE Riverdogs---[?]
--------------------------------------------------------------------------------------------------------------
2:00pm, At Recreation Park, Branch

DENMARK Devilbears---300-200-001---6-9-2
-
PITCHING: [IP-H-ER-BB-Ks] --- WP-Trevor DePas, [7.0-3-0-2-6] --- Jereme Jensen, [2.0-1-0-2-2]
-
BATTING: [AB-R-H-RBI] --- Sam Crawford, 1-0-0-0; Jacob Gilson, 1-0-0-0; Cody Rhodezay, 1-0-0-0; Jeff Stueck, 0-0-0-0; Alex Michiels, 4-2-4-1; Mitch Kouba, 3-1-1-0; Jerem Jensen, 4-0-1-0; Peter Aerts, 3-1-0-1; Max Loberger, 5-1-2-1; Brad Daniels, 2-0-0-0; Shane Michiels, 2-1-0-0; Trevor DePas, 3-0-0-0; Ben Wyngaard, 3-1-1-1; ~ Totals: 32-7-9-2;

~@~~~

BRANCH Blaze---000-000-000---0-4-2
-
PITCHING: [Not Available]
-
BATTING: [Not Available]
--------------------------------------------------------------------------------------------------------------

======================================================================================================================================================

TUESDAY, JUNE 30th, 2015

--------------------------------------------------------------------------------------------------------------
7:30pm, At Walsh Field, Two Rivers

{3-Stars: --- #1 - Shad Hintz {TWR} --- #2 - Chris Casper {TWR} --- #3 - Brandon Bartels {TWR}

BRANCH Blaze---000-000-0---0-1-4
-
PITCHING: [IP-H-ER-BB-Ks] --- LP-Hunter Saubert, [4.1-6-8-5-2] --- AJ Lorrigan, [1.2-7-7-3-1]
-
BATTING: [AB-R-H-RBI] --- Dan Berries, 2-0-0-0; Brandon Glaeser, 3-0-0-0; Jason Yaeger, 3-0-0-0; Hunter Saubert, 3-0-0-0; Brent Robinson, 2-0-0-0; Jon Roberts, 1-0-0-0; Zach Berries, 2-0-0-0; Ryan "Ace" Lindner, 2-0-0-0; Luke Kiel, 2-0-0-0; Ben Olson, 2-0-1-0; ~ LOB-2 ~ Totals: 22-0-1-4;

~@~~~

TWO RIVERS Polar Bears---101-184-x---15-13-0
-
PITCHING: [IP-H-ER-BB-Ks] --- WP-Chris Casper, [7.0-1-0-1-3]
-
BATTING: [AB-R-H-RBI] --- Chris Casper, 5-2-2-2; Ryan Boettcher, 3-2-1-2; Mike Ruzek, 4-1-1-3; Shad Hintz, 4-2-3-3+HR; Chris Rohr, 2-1-1-1; Jared Surman, 4-2-2-0; Tyler Wilke, 2-2-1-0; David Garcia, 1-0-0-0; Brandon Bartels, 4-2-2-4; Derek Klarkowski, 3-1-0-0; ~ LOB-7 ~ Totals: 32-15-13-0;
--------------------------------------------------------------------------------------------------------------

======================================================================================================================================================

WEDNESDAY, JULY 1st, 2015

--------------------------------------------------------------------------------------------------------------
6:30pm, At High School Field, Denmark (13in)

2015, DOOR COUNTY "All-Stars"---000-000-000-000-1---1-x-x ~ WP-David Van Dreese,

~vs~~~

2015, SHORELAND "All-Stars"---000-000-000-000-0---0-x-x --- [PITCHING: [IP-H-ER-BB-Ks] ~ LP-Mike Ruzek, {TWR} [2.0-2-0-0-1] --- Mitch Kouba, {DDB} [3.0-1-0-0-1] --- Lucas Stewart, {CCA} [3.0-0-0-0-2] --- Luke Mandich {TWR} , [5.0-2-0-0-2]
--------------------------------------------------------------------------------------------------------------

======================================================================================================================================================

THURSDAY, JULY 2nd, 2015

--------------------------------------------------------------------------------------------------------------
"Jack O' Diamonds" Kewaunee County, "Rivalry Series"

7:30pm, At Village Park, Casco

{3-Stars: --- #1 - Matt Jadin {CCA} --- #2 - Devon Kornowski {CCA} --- #3 - Alan Karas {ALG}

ALGOMA Guins---000-001-000---1-5-0
-
PITCHING: [IP-H-ER-BB-Ks] --- LP-Justin Alexander, [8.0-5-3-3-5]
-
BATTING: [AB-R-H-RBI] --- Sam Koss, 4-0-1-0; Craig Kirchman, 3-0-0-0; Alan Karas, 4-0-2-1; Chad LaLuzerne, 4-0-0-0; Merrick Griffin, 4-0-1-0; Justin Alexander, 4-0-0-0; Jake LeBotte, 2-0-0-0; Alex Muia, 3-0-1-0; Riley Bricco, 3-0-0-0; ~ LOB-5 ~ Totals: 31-1-5-0;

~@~~~

CASCO Athletics---003-000-00x---3-5-1
-
PITCHING: [IP-H-ER-BB-Ks] --- WP-Caleb Williems, [9.0-5-1-1-7]
-
BATTING: [AB-R-H-RBI] --- Lucas Tlachac, 3-0-0-1; Caleb Williems, 4-0-0-0; Matt Jadin, 3-0-2-1; Devon Kornowski, 4-0-1-1; Nick Sullivan 3-0-0-0; Mitch Berceau, 3-0-0-0; Chad Phillips, 2-1-0-0; Doug Swanson, 3-1-1-0; Justin Zellner, 3-1-1-0; ~ LOB-4 ~ Totals: 28-3-5-1;

(Attn: 65) - (Concessions) - (PA, Good) - (Weather: 56 degrees) - [Umpires: Karl Volkman, Plate & Doug Stienke, Bases]
--------------------------------------------------------------------------------------------------------------

======================================================================================================================================================

MONDAY, JULY 6th, 2015

--------------------------------------------------------------------------------------------------------------
7:30pm, At High School Field, Denmark (6in)

BRANCH Blaze---003-000---3-5-5
-
PITCHING: --- [Not Available]
-
BATTING: --- [Not Available]

~@~~~

DENMARK Devilbears---020-433---12-17-4
-
PITCHING: [IP-H-ER-BB-Ks] --- WP-Jereme Jensen, [5.0-4-1-1-2] --- Tyler Nelson, [1.0-1-0-1-1]
-
BATTING: [AB-R-H-RBI] --- Jacob Gilson, 1-0-0-0; Tyler Nelson, 5-1-4-2; Mitch Kouba, 4-0-0-0; Jereme Jensen, 5-1-2-2; Max Loberger, 5-1-3-0; Kevin Konkol, 4-2-3-1; Brad Daniels, 3-3-3-2; Trevor DePas, 2-2-1-0; Ryan Steffel, 5-1-2-3; Sam Crawford, 3-1-1-1; ~ Totals: 37-12-19-4;
--------------------------------------------------------------------------------------------------------------
7:30pm, At Perry Field, Algoma

KEWAUNEE Chiefs---1
~@~~~-----------------(Bottom of 2nd, Rain)
ALGOMA Guins---4
-
Make-Up, Thursday, July 16th, 6:30pm, [Game 1] at Perry Field.
-
[Game 2] Make-Up of Friday, June 26th, at Memorial Field, Kewaunee
--------------------------------------------------------------------------------------------------------------

======================================================================================================================================================

TUESDAY, JULY 7th, 2015

--------------------------------------------------------------------------------------------------------------
7:30pm, At Municipal Field, Manitowoc

LITTLE CHUTE Bandits---105-200-002---10-13-3 ~ WP-Nate Mulzer,
~@~~~
MANITOWOC Heat---001-200-000---3-9-3 ~ LP-Justin Stenzel,
--------------------------------------------------------------------------------------------------------------

======================================================================================================================================================

WEDNESDAY, JULY 8th, 2015

--------------------------------------------------------------------------------------------------------------
7:30pm, At Memorial Field, Kewaunee

LITTLE CHUTE Bandits---001-010-130---6-10-0
~@~~~
KEWAUNEE Chiefs---000-000-030---3-5-1
-
(Attn: 20) - (Concessions) - (PA, Eddie Coppersmith) - (Weather: 60 Degrees)
--------------------------------------------------------------------------------------------------------------
7:30pm, At Walsh Field, Two Rivers

{3-Stars: --- #1 - Shad Hintz {TWR} --- #2 - Luke Mandich {TWR} --- #3 - Derek Klarkowski {TWR}

ALGOMA Guins---000-020-000---2-8-2
-
PITCHING: [IP-H-ER-BB-Ks] --- LP-Justin Alexander, [4.0-5-6-3-1] --- Nick Kita, [4.0-5-0-0-1]
-
BATTING: [AB-R-H-RBI] --- Sam Koss, 5-0-1-1; Craig Kirchman, 4-0-1-0; Nick Kita, 4-0-1-0; Merrick Griffin, 4-0-1-0; Griffen Cole, 4-0-1-0; Austen Dart, 4-0-1-0; Justin Alexander, 4-1-1-0; Jake LeBotte, 3-1-1-0; Riley Bricco, 4-0-0-0; ~ LOB-8 ~ Totals: 36-2-8-2;

~@~~~

TWO RIVERS Polar Bears---212-100-00x---6-10-3
-
PITCHING: [IP-H-ER-BB-Ks] --- WP-Luke Mandich, [7.0-6-2-1-4] --- Mike Ruzek, [2.0-2-0-0-0]
-
BATTING: [AB-R-H-RBI] --- Casey Bartels, 2-1-0-0; David Garcia, 2-0-0-0; Chris Rohr, 4-0-1-1; Mike Ruzek, 4-2-2-0; Shad Hintz, 5-1-2-3+HR; A.J. Dollinger, 4-0-1-1; Jared Surman, 3-0-0-0; Brandon Bartels, 3-1-2-0; Charlie Kiel, 4-0-0-0; Derek Klarkowski, 4-1-2-1; Luke Mandich, 0-0-0-0; ~ LOB-10 ~ Totals: 35-6-10-3;
--------------------------------------------------------------------------------------------------------------
7:30pm, At Village Park, Casco (7in)

{3-Stars: --- #1 - Devon Kornowski {CCA} --- #2 - Matt Jadin {CCA} --- #3 - Aaron Jarosinski {CCA}

BRANCH Blaze---000-000-0---0-4-2
-
PITCHING: [IP-H-ER-BB-Ks] --- LP-Jon Roberts, [5.0-6-5-4-1] --- Jake Gorth, [0.2-3-6-5-0] --- AJ Lorrigan, [0.1-0-0-0-0]
-
BATTING: [AB-R-H-RBI] --- Brandon Glaeser, 3-0-1-0; Dan Berries, 3-0-0-0; Jake Gorth, 3-0-1-0; Brent Robinson, 3-0-0-0; Zach Berries, 3-0-2-0; Ryan "Ace" Lindner, 3-0-0-0; Ben Olson, 1-0-0-0; Luke Kiel, 3-0-0-0; Jon Roberts, 2-0-0-0; AJ Lorrigan, 0-0-0-0; ~ LOB-5 ~ Totals: 24-0-4-2;

~@~~~

CASCO Athletics---001-326-x---12-9-0
-
PITCHING: [IP-H-ER-BB-Ks] --- WP-Trevor Kinnard, [6.0-3-0-1-5] --- Kyle Malhik, [1.0-1-0-1-1]
-
BATTING: [AB-R-H-RBI] --- Trevor Kinnard, 4-0-1-1; Wes Mleziva, 3-1-2-1; Shaun Corroy, 2-2-0-0; Joe Mleziva, 3-3-2-0; Matt Jadin, 3-2-1-2; John Mleziva, 3-0-0-1; Devon Kornowski, 3-2-2-3Aaron Jarosinski, 4-0-1-2; Justin Zellner, 1-2-0-0; ~ LOB-6 ~ Totals: 26-12-9-0;
--------------------------------------------------------------------------------------------------------------
8:00pm, At Memorial Park, Howards Grove

DENMARK Devilbears---000-400-000---4-10-4
-
PITCHING: [IP-H-ER-BB-Ks] --- WP-Mitch Kouba, [9.0-3-0-3-9]
-
BATTING: [AB-R-H-RBI] --- Shane Michiels, 1-0-0-0; Trevor DePas, 4-0-1-1; Max Loberger, 5-0-1-0; Jereme Jensen, 5-0-2-0; Kevin Konkol, 5-0-1-0; Mitch Kouba, 5-1-3-0; Brad Daniels, 5-1-1-0; Jeff Stueck, 1-1-0-0; Ryan Steffel, 2-0-1-2; Dick Kouba, 3-0-0-0; ~ Totals: 36-4-10-4;

~@~~~

HOWARDS GROVE Riverdogs---000-011-000---2-3-2
-
PITCHING: --- [Not Available]
-
BATTING: --- [Not Available]
--------------------------------------------------------------------------------------------------------------

======================================================================================================================================================

FRIDAY, JULY 10th, 2015

--------------------------------------------------------------------------------------------------------------
7:30pm, At Walsh Field, Two Rivers

DENMARK Devilbears---110-000-000---2-4-3
-
PITCHING: [IP-H-ER-BB-Ks] --- LP-Trevor DePas, [8.0-4-2-2-5]
-
BATTING: [AB-R-H-RBI] --- Brandon Hintz, 4-1-1-0; Trevor DePas, 4-0-0-0; Jacob Gilson, 1-0-1-0; Jereme Jensen, 3-0-0-1; Kevin Konkol, 4-0-0-0; Max Loberger, 4-1-1-0; Brad Daniels, 3-0-1-1; Sam Crawford, 2-0-0-0; Dick Kouba, 2-0-0-0; Ryan Steffel, 3-0-1-1; ~ Totals: 30-2-4-3;

~@~~~

TWO RIVERS Polar Bears---000-210-00x---3-5-3
-
PITCHING: [Not Available]
-
BATTING: [Not Available]
--------------------------------------------------------------------------------------------------------------
"Jack O' Diamonds" Kewaunee County, "Rivalry Series"

7:30pm, At Village Park, Casco

{3-Stars: --- #1 - Lucas Stewart {CCA} --- #2 - Aaron Janosinski {CCA} --- #3 - Devon Kornowski {CCA}

KEWAUNEE Chiefs---000-000-100---1-7-2
-
PITCHING: [IP-H-ER-BB-Ks] --- WP-Lucas Stewart, [9.0-7-1-1-10]
-
BATTING: [AB-R-H-RBI] --- Kyle Thompson, 4-0-0-0; Josh Lamack, 3-0-0-0; Cole Kitter, 1-0-0-0; Matt Miller, 3-0-1-0; Alex Honzik, 4-0-0-0; Alex Mehn, 4-1-2-0; Tyler Wotachek, 4-0-2-0; Alex Cornils, 3-0-1-0; Mark Larsen, 1-0-0-0; Jarred Pribek, 3-0-0-1; Doug Dalabreau, 3-0-1-0;

~@~~~

CASCO Athletics---120-050-11x---10-10-0
-
PITCHING: [IP-H-ER-BB-Ks] --- LP-Alex Mehn, [5.0-8-6-1-1] --- Doug Dalabreau, [3.0-2-2-6-1]
-
BATTING: [AB-R-H-RBI] --- Wes Mleziva, 2-2-0-0; Caleb Williems, 4-1-1-1; Joe Mleziva, 5-1-2-1; Devon Kornowski, 3-2-2-1; Matt Jadin, 5-0-1-0; Aaron Janosinski, 5-2-2-2; Nick Sullivan, 4-1-1-0; Doug Swanson, 1-1-1-0; Trevor Kinnard, 3-0-0-0; ~ LOB-9 ~ Totals: 32-10-10-0;

(Attn: 75) - (Concessions) - (PA, She's Good) - (Weather: 63 Degrees)
-
[Umpires: Curt Vanderstett, Plate & Steve Walsh, Bases]
--------------------------------------------------------------------------------------------------------------
8:00pm, At Memorial Park, Howards Grove

MANITOWOC Heat---[L]
~@~~~
HOWARDS GROVE Riverdogs---[W]
--------------------------------------------------------------------------------------------------------------
8:00pm, At Perry Field, Algoma (13in)

{3-Stars: --- #1 - Ethan Bemowski {ALG} --- #2 - Nick Kita {ALG} --- #3 - Craig Kirchman {ALG}

SHEBOYGAN Braves---000-001-110-200-0---5-8-1
-
PITCHING: [IP-H-ER-BB-Ks] --- LP-Nick Nelson, [0.1-0-1-1-0] --- Tyler Ebbers, [9.0-8-3-13-3] --- Alex Nelson, [3.0-4-2-1-0]
-
BATTING: [AB-R-H-RBI] --- Nick Nelson, 6-2-2-0; Ryan Hamm, 6-1-2-1; Alex Nelson, 5-1-0-0; Santos Medina, 5-0-0-0; Tyler Ebbers, 6-1-2-2; Dane Blake, 2-0-0-0; Freddy Briones, 3-0-0-0; Manny Ramirez, 0-0-0-0; Nick Wilson, 6-0-1-1; Nick Lorge, 6-0-0-0; ~ LOB-? ~ Totals: 50-5-8-1;

~@~~~

ALGOMA Guins---003-000-000-200-1---6-12-4
-
PITCHING: [IP-H-ER-BB-Ks] --- WP-Nick Kita, [6.0-2-2-4-6] --- Ethan Bemowski, [7.0-6-2-0-9]
-
BATTING: [AB-R-H-RBI] ---- Sam Koss, 5-0-1-0; Craig Kirchman, 4-2-2-2; Nick Kita, 6-1-2-3; Ethan Bemowski, 6-0-4-1; Merrick Griffin, 6-0-1-0; Austen Dart, 5-0-0-0; Justin Alexander, 3-0-1-0; jake LeBotte, 5-1-0-0; J.R. Pigeon, 5-1-1-0; ~ LOB-? ~ Totals: 45-6-12-4;

[Umpires: Phil Ducat, Plate & Jon Ledvina, Bases]
--------------------------------------------------------------------------------------------------------------

======================================================================================================================================================

SATURDAY, JULY 11th, 2015

--------------------------------------------------------------------------------------------------------------
3:00pm, At Recreation Park, Branch

{3-Stars: --- #1 - Brent Robinson {BBZ} --- #2 - Ryan "Ace" Lindner {BBZ} --- #3 - AJ Lorrigan {BBZ}

KEWAUNEE Chiefs---000-000-000---0-6-1
-
PITCHING: [IP-H-ER-BB-Ks] --- LP-Alex Honzik, [7.0-14-5-2-1] --- Derek Cornils, [1.0-1-1-3-0]
-
BATTING: [AB-R-H-RBI] --- Alex Cornils, 3-0-1-0; Jarred Pribek, 4-0-0-0; Alex Honzik, 4-0-1-0; Tyler Wotachek, 3-0-2-0; Derek Cornils, 4-0-0-0; Nick Langer, 4-0-0-0; Josh Lamock, 3-0-1-0; Tim Struck, 3-0-1-0; Mike Larzelere, 3-0-0-0; ~ LOB-6 ~ Totals: 31-0-6-1;

~@~~~

BRANCH Blaze---023-011-01x---8-15-0
-
PITCHING: [IP-H-ER-BB-Ks] --- WP-AJ Lorrigan, [8.0-6-0-0-6] --- Jake Groth, [1.0-0-0-1-1]
-
BATTING: [AB-R-H-RBI] --- Brandon Glaeser, 4-2-3-2; Dan Berries, 4-0-1-0; Jake Groth, 4-1-1-0; Jason Yeager, 4-0-2-1; Brent Robinson, 4-2-3-1; Zach Berries, 4-2-1-0; Ryan "The Ace" Lindner, 4-1-3-0; Hunter Decker, 4-0-1-3; Jon Roberts, 4-0-0-0; AJ Lorrigan, 0-0-0-0; ~ LOB-7 ~ Totals: 36-8-15-0;
--------------------------------------------------------------------------------------------------------------
4:00pm, At Village Park, Casco

{3-Stars: --- #1 - Caleb Williems {CCA} --- #2 - Devon Kornowksi {CCA} --- #3 - Trevor Kinnard {CCA}

MANITOWOC Heat---000-000-0---0-3-1
-
PITCHING: [IP-H-ER-BB-Ks] --- LP-Nick Westergard, [6.0-15-10-5-0]
-
BATTING: [AB-R-H-RBI] --- Nate Becher, 3-0-0-0; Andy Froehlich, 3-0-1-0; Nick Westergard, 3-0-0-0; Chad Schrank, 3-0-0-0; Chris Froehlich, 3-0-1-0; Craig Grandaw, 3-0-1-0; Adam Oakland, 2-0-0-0; Evan Wirts, 2-0-0-0; Terrell Hildall, 2-0-0-0; ~ LOB-4 ~ Totals: 24-0-3-1;

~@~~~

CASCO Athletics---502-011-2---11-13-0
-
PITCHING: [IP-H-ER-BB-Ks] --- WP-Caleb Williems, [7.0-3-0-1-2]
-
BATTING: [AB-R-H-RBI] --- Wes Mleziva, 3-1-1-0; Caleb Williems, 4-2-1-0; Devon Kornowski, 5-1-4-3+HR; Shaun Corroy, 4-1-2-0; Aaron Janosinski, 4-1-2-0; John Mleviva, 4-1-1-0; Trevor Kinnard, 3-1-1-2; Cory Passizzi, 3-2-2-0; Nick Sullivan, 3-1-1-1; ~ LOB-8 ~ Totals: 33-11-15-0;

(Attn: 20) - (Concessions, Great Hot Dogs) - (PA- Very Good) - (Weather: Sunny, 78 degrees)
-
[Umpires: Jon Ledvina, Plate & Phil Ducat, Bases]
--------------------------------------------------------------------------------------------------------------
7:30pm, At Van Lieshout Park, Little Chute

SHEBOYGAN Braves---[1]
~@~~~
LITTLE CHUTE Bandits---[12]
--------------------------------------------------------------------------------------------------------------

======================================================================================================================================================

SUNDAY, JULY 12th, 2015

--------------------------------------------------------------------------------------------------------------
2:00pm, At Recreation Park, Branch

{3-Stars: --- #1 - Ryan Lindner {BBZ} --- #2 - Zack Berries {BBZ} --- #3 - PJ Weber {HGR}

HOWARDS GROVE Riverdogs---010-000-100---2-7-4
-
PITCHING: [IP-H-ER-BB-Ks] --- LP-Ashton Holzman, [8.0-11-2-2-6]
-
BATTING: [AB-R-H-RBI] --- Noah Steines, 4-0-2-1; Cole Reinemann, 5-0-0-0; Ashton Holzman, 3-0-0-0; PJ Weber, 4-1-2-0; Ryan Halverson, 3-0-0-0; Mark Holzman, 4-1-2-1; Eric Dickmyer, 4-0-0-0; Nick Bainter, 4-0-1-0; Lewis Halverson, 2-0-0-0; ~ LOB-9 ~ Totals: 33-2-7-4;

~@~~~

BRANCH Blaze---010-102-11x---6-11-0
-
PITCHING: [IP-H-ER-BB-Ks] --- WP-Jon Roberts, [9.0-7-2-2-4]
-
BATTING: [AB-R-H-RBI] --- Brandon Glaeser, 5-0-2-1; Jason Yeager, 5-0-1-0; Jake Groth, 5-1-0-0; Hunter Saubert, 3-1-0-0; Ryan "Ace is the Place" Lindner, 5-1-4-0; Zach Berries, 4-0-2-1; Jon Roberts, 4-0-1-0; AJ Lorrigan, 5-1-1-0; Dan Berries, 1-2-0-1; ~ LOB-14 ~ Totals: 37-6-11-0;
--------------------------------------------------------------------------------------------------------------

======================================================================================================================================================

WEDNESDAY, JULY 15th, 2015

--------------------------------------------------------------------------------------------------------------
7:30pm, At Memorial Field, Kewaunee

{3-Stars: --- #1 - Josh Lamack {KWC} --- #2 - Andy Froehlich {MTH} --- #3 - Tanner Ledvina {KWC}

MANITOWOC Heat---xxx-xxx-xxx---7-7-x
-
PITCHING: [IP-H-ER-BB-Ks] --- LP-Tom Eckhardt, [5.0-13-6-3-5] --- Chris Froehlich, [4.0-2-0-1-3]
-
BATTING: [AB-R-H-RBI] --- Nate Bender, 2-1-0-0; Justin Stenzel, 4-0-1-2; Jake Woolsey, 5-1-1-1; Chad Schrank, 5-0-1-1; Brent Lindholm, 3-1-0-0; Craig Grandaw, 4-0-0-0; Chris Froehlich, 2-2-0-0; Tom Eckhardt, 3-1-1-0; Andy Froehlich, 4-1-3-1; ~ LOB-? ~ Totals: 32-7-7-x;

~@~~~

KEWAUNEE Chiefs---xxx-xxx-xxx---11-15-x
-
PITCHING: [IP-H-ER-BB-Ks] --- WP-Tanner Ledvina, [5.1-3-2-1-8] --- Caleb Johnson, [2.0-2-3-6-5] --- Kyle Thompson, [1.2-2-0-1-1]
-
BATTING: [AB-R-H-RBI] --- Alex Mehn, 6-1-1-2; Kyle Thompson, 4-3-1-0; Cole Kittell, 1-0-0-0; Matt Miller, 4-2-2-1; Alex Honzik, 3-1-2-2; J. Pilgrim, 1-0-0-0; Tyler Wotachek, 5-1-2-4; Alex Cornils, 5-1-2-0; Derek Corbils, 5-0-1-1; Jared Pribek, 4-1-0-0; Josh Lamack, 4-1-4-0; ~ LOB-? ~ Totals: 42-11-15-x;
--------------------------------------------------------------------------------------------------------------
7:30pm, At Perry Field, Algoma

{3-Stars: --- #1 - Mitch Kouba {DDB} --- #2 - Jereme Jensen {DDB} --- #3 - Brad Daniels {DDB}

DENMARK Devilbears---000-034-000---7-12-4
-
PITCHING: [IP-H-ER-BB-Ks] --- WP-Mitch Kouba, [9.0-3-0-3-11]
-
BATTING: [AB-R-H-RBI] --- Jereme Jensen, 4-0-3-2; Max Loberger, 5-1-1-2; Brad Daniels, 4-2-1-2; Mitch Kouba, 5-0-1-1; Ryan Steffel, 3-0-2-0; Sam Crawford, 4-1-0-0; Dustin Dworak, 5-1-1-0; Mike Hancock, 5-0-1-0; ~ LOB-? ~ Totals: 35-7-12-4;

~@~~~

ALGOMA Guins---002-002-000---4-3-6
-
PITCHING: [IP-H-ER-BB-Ks] --- LP-Justin Alexander, [9.0-11-3-4-8]
-
BATTING: [AB-R-H-RBI] --- Sam Koss, 4-0-0-0; Craig Kirchman, 5-1-2-0; Nick Kita, 4-1-1-0; Ethan Bemowski, 4-0-1-1; Chad LaLuzerne, 4-0-0-0; Merrick Griffin, 4-1-2-0; Jake LeBotte, 3-1-0-1; Justin Alexander, 4-0-1-0; Riley Bricco, 4-0-0-0; ~ LOB-? ~ Totals: 36-4-7-6;
--------------------------------------------------------------------------------------------------------------

======================================================================================================================================================

THURSDAY, JULY 16th, 2015

--------------------------------------------------------------------------------------------------------------
"Jack O' Diamonds" Kewaunee County, "Rivalry Series" ~ "Double-Header"

6:30pm, At Perry Field, Algoma (7in-Game)

{3-Stars: --- #1 - Ethan Bemowski {ALG} --- #2 - Chad LaLuzerne {ALG} --- #3 - Nick Kita {ALG}

[Game 1]

KEWAUNEE Chiefs---100-000---1-6-0
-
PITCHING: [IP-H-ER-BB-Ks] --- LP-Alex Mehn, [2.0-4-3-2-1] --- Alex Honzik, [4.0-5-8-3-2]
-
BATTING: [AB-R-H-RBI] --- Kyle Thompson, 3-1-2-0; Alex Mehn, 3-0-0-0; Alex Cornils, 3-0-2-0; Matt Miller, 2-0-0-0; Tyler Wotachek, 2-0-1-0; Jarred Pribek, 1-0-1-0; Doug Delebreau, 3-0-0-0; Josh Lamark, 2-0-0-0; Cole Kitter, 2-0-0-0; Alex Honzik, 0-0-0-0; ~ LOB-1 ~ Totals: 24-1-6-0;

~@~~~

ALGOMA Guins---071-003---11-11-0
-
PITCHING: [IP-H-ER-BB-Ks] --- WP-Ethan Bemowski, [6.0-6-1-1-3]
-
BATTING: [AB-R-H-RBI] --- Sam Koss, 3-2-1-0; Cory Nell, 1-0-0-0; Griffin Cole, 1-1-1-1; Crain Kirchman, 2-0-1-0; Nick Kita, 4-2-2-1; Ethan Bemowski, 4-1-2-0; Chad LaLuzerne, 2-0-1-2; Merrick Griffin, 1-1-1-1; Jake LeBotte, 2-1-1-1; Ryan "Killer" Klessig 1-1-0-0; Justin Alexander, 1-1-0-0; J.R. Pigeon, 3-0-0-0; Riley Bricco, 3-1-1-0; ~ LOB-8 ~ Totals: 28-11-11-0

(Attn: 55) - (Concessions) - (PA-None) - (Weather: 67 degrees, Rain)
-
[Umpires: Jon Ledvina, Plate @ Jascon "Leddy" Ledvina, Bases]
-------------------------------------------------------
-------------------------------------------------------
8:30pm, At Perry Field, Algoma

{3-Stars: --- #1 - Ethan Bemoski {ALG} --- #2 - Nick Kita {ALG} --- #3 - Ryan "Killer" Klessig {ALG}

[Game 2]

ALGOMA Guins---200-002-6---10-8-0
-
PITCHING: [IP-H-ER-BB-Ks] --- WP-Sam Koss, [2.0-0-1-4-3] --- Ethan Bemowski, [4.0-3-2-2-4] --- Ryan Klessig, [1.0-2-5-5-0]
-
BATTING: [AB-R-H-RBI] --- Sam Koss, 5-1-2-1; Griffin Cole, 3-2-0-0; Nick Kita, 5-1-3-1; Ethan Bemowski, 5-0-3-2; Chad LaLuzerne, 2-1-1-0; Jake LeBotte, 2-0-0-1; Ryan "Killer" Klessig, 3-1-1-2; J.R. Pigeon, 4-2-1-0; Riley Bricco, 4-0-0-0; ~ LOB-12 ~ Totals: 33-10-8-0;

~vs~~~

KEWAUNEE Chiefs---500-010-2---8-5-3
-
PITCHING: [IP-H-ER-BB-Ks] --- LP-Alex Mehn, [6.1-8-4-9-6] --- Alex Honzik, [0.2-2-2-2-0]
-
BATTING: [AB-R-H-RBI] --- Alex Mehn, 3-0-0-0; Matt Miller, 1-0-0-0; Kyle Thompson, 2-2-1-0; Alex Cornils, 2-1-0-0; Alex Honzik, 4-1-1-0; Tyler Wotachek, 2-2-1-0; Doug Delebreau, 2-1-0-1; Cole Kitter, 3-1-1-2; Jarred Pribek, 2-0-0-0; Josh Lamark, 3-0-1-0; Derek Cornils, 1-0-0-0; ~ LOB-5 ~ Totals: 25-8-5-3;
-
(Attn: 40) - (Concessions) - (PA-None) - (Weather: 63 degrees, Rain)
-
[Umpires: Jason "Leddy" Ledvina, Plate & Jon Ledvina, Bases]
--------------------------------------------------------------------------------------------------------------

======================================================================================================================================================

FRIDAY, JULY 17th, 2015

--------------------------------------------------------------------------------------------------------------
7:30pm, At Van Lieshout Park, Little Chute

HOWARDS GROVE Riverdogs
~@~~~--------------------------------[PPD]
LITTLE CHUTE Bandits
--------------------------------------------------------------------------------------------------------------
7:30pm, At High School Field, Denmark

KEWAUNEE Chiefs---011-100-000---3-8-3
-
PITCHING: [Not Available]
-
BATTING: [Not Available]

~@~~~

DENMARK Devilbears---103-012-04x---11-6-0
-
PITCHING: [IP-H-ER-BB-Ks] --- WP-Trevor DePas, [4.0-8-2-1-3] --- Max Loberger, [1.0-0-2-2] --- Riley Pelishek, [4.0-1-0-3-7]
-
BATTING: [AB-R-H-RBI] --- Sam Crawford, 2-0-1-2; Jacob Gilson, 0-1-0-0; Dick Kouba, 1-0-0-0; Ryan Steffel, 0-1-0-0; Ben Wyngaard, 2-0-0-0; Brandon Hintz, 2-3-1-0; Riley Pelishek, 2-1-0-0; Peter Aerts, 2-1-0-1; Max Loberger, 3-0-1-3; Jereme Jensen, 3-1-1-4; Mitch Kouba, 2-0-0-0; Brad Daniels, 3-0-1-1; Trevor DePas, 3-0-0-0; Shane Michiels, 2-1-1-0; ~ LOB-? ~ Totals: 27-11-6-0;
--------------------------------------------------------------------------------------------------------------
6:00pm, At Municipal Field, Manitowoc

[Game 1]

SHEBOYGAN Braves---301-510-2---12-13-0 ~ WP-Manny Ramiraz,
~@~~~
MANITOWOC Heat---000-100-0---1-4-4 ~ LP-Nick Westergard,
------------------------------------------------------
8:00pm, At Municipal Field, Manitowoc

[Game 2]

MANITOWOC Heat---001-020-0---3-6-3 ~ WP-Justin Stenzel,
~vs~~~
SHEBOYGAN Braves---101-000-0---2-6-1 ~ LP-Nick Wilson,
--------------------------------------------------------------------------------------------------------------

=======================================================================================================================

SATURDAY, JULY 18th, 2015

--------------------------------------------------------------------------------------------------------------
7:30pm, At Van Lieshout Park, Little Chute

CASCO Athletics---[?]
~@~~~
LITTLE CHUTE Bandits---[?]
--------------------------------------------------------------------------------------------------------------

======================================================================================================================================================

SUNDAY, JULY 19th, 2015

--------------------------------------------------------------------------------------------------------------
2:00pm, At Village Park, Casco

{3-Stars: --- #1 - Cole Reinemann {HGR} --- #2 - Trevor Kinnard {CCA} --- #3 - Wes Mlevina {CCA}

HOWARDS GROVE Riverdogs---000-000-000---0-5-2
-
PITCHING: [IP-H-ER-BB-Ks] --- LP-Cole Reinemann, [8.0-6-0-2-7]
-
BATTING: [AB-R-H-RBI] --- Noah Stienes, 5-0-1-0; Cole Reinemann, 3-0-1-0; Brady Callhan, 3-0-0-0; Ashton Holzman, 3-01-0; P.J. Weber, 3-0-0-0; Ryan Halverson, 2-0-1-0; Eric Dickmeyer, 4-0-0-0; Andrew Reinemann, 4-0-1-0; Lewis Halverson, 4-0-0-0; ~ LOB-10 ~ Totals: 31-0-5-2;

~@~~~

CASCO Athletics---000-010-00x---1-6-0
-
PITCHING: [IP-H-ER-BB-Ks] --- WP-Trevor Kinnard, [9.0-5-0-7-5]
-
BATTING: [AB-R-H-RBI] --- Wes Mleziva, 3-0-1-1; Joe Mleziva, 3-0-0-0; Devon Kornowski, 4-0-0-0; Matt Jadin, 4-0-0-0; Aaron Janosinski, 4-0-2-0; Nick Sullivan, 3-0-0-0; Trevor Kinnard, 4-1-1-0; Kyle Mahlik, 4-0-1-0; Justin Zellner, 3-0-0-0; ~ LOB-9 ~ Totals: 32-1-6-1;

(Attn: 30) - (Concessions, Great Hot Dogs) - (PA, by Ally) - (Weather: 83 Degrees, Sunny, Windy)
-
[Umpires: Toby Olsen, Plate & Doug Stienke, Bases]
--------------------------------------------------------------------------------------------------------------

======================================================================================================================================================

MONDAY, JULY 20th, 2015

--------------------------------------------------------------------------------------------------------------
7:30pm, At Municipal Field, Manitowoc

ALGOMA Guins---320-081-1---15-11-0 ~ WP-Justin Alexander,
~@~~~
MANITOWOC Heat---000-002-0---2-6-3 ~ LP-Chris Froehlich,
-
No report on this game.
--------------------------------------------------------------------------------------------------------------

======================================================================================================================================================

TUESDAY, JULY 21st, 2015

--------------------------------------------------------------------------------------------------------------
7:30pm, At Van Lieshout Park, Little Chute

{3-Stars: --- #1 - Brandon Glaeser {BBZ} --- #2 - Spencer Miller {LCB} --- #3 - Mitch Ciske {LCB}

BRANCH Blaze---000-100-000---1-8-3
-
PITCHING: [IP-H-ER-BB-Ks] --- LP-Jon Roberts, [7.0-12-3-1-1] --- AJ Lorrigan, [1.0-2-0-0-0]
-
BATTING: [AB-R-H-RBI] --- Brandon Glaeser, 5-0-4-1; Jake Groth, 4-0-0-0; Hunter Saubert, 4-0-2-0; Brent Robinson, 5-0-0-0; Ryan "Acer" Lindner, 5-0-0-0; Zach Berries, 2-1-1-0; Jon Roberts, 0-0-0-0; AJ Lorrigan, 0-0-0-0; Ben Olson, 2-0-1-0; Hunter Decker, 2-0-0-0; Dan Berries, 4-0-0-0; ~ LOB-11 ~ Totals: 33-1-8-3;

~@~~~

LITTLE CHUTE Bandits---012-100-020---6-14-2
-
PITCHING: [IP-H-ER-BB-Ks] --- WP-Jared Knudsen, [5.0-5-1-3-5] --- Mark Carew, [2.0-2-0-2-3] --- Nate Mulzer, [2.0-1-0-3-3]
-
BATTING: [AB-R-H-RBI] --- Mitch Ciske, 5-1-3-1; Joe Huss, 5-1-1-0; Spencer Miller, 3-0-3-3; Dan Rothbauer, 5-0-1-0; Caleb Emmers, 4-1-1-1+HR; Clint Lamers, 4-0-2-0; Nick Nicholson, 4-1-1-0; Nate Penn, 2-1-0-0; John DeBruin, 4-1-2-0; Jared Knudsen, 0-0-0-0; Mark Carew, 0-0-0-0; Nate Mulzer, 0-0-0-0; ~ LOB-9 ~ Totals: 36-6-14-2;
--------------------------------------------------------------------------------------------------------------

======================================================================================================================================================

WEDNESDAY, JULY 22nd, 2015

--------------------------------------------------------------------------------------------------------------
7:30pm, At Walsh Field, Two Rivers

KEWAUNEE Chiefs---[1-2-0]
-
PITCHING: [Not Available]-
-
BATTING: [Not Available]

~@~~~

TWO RIVERS Polar Bears---[7-13-2]
-
PITCHING: [IP-H-ER-BB-Ks] --- WP-Luke Mandich, [8.0-2-0-014] --- Jared Surmon, [1.0-0-0-0-2]
-
BATTING: [AB-R-H-RBI] --- Davis Garcia, 1-0-0-0; Casey Bartels, 3-1-1-0; Derek Klarkowski, 3-0-1-0; Charlie Kiel, 4-1-2-0; Chris Rohr, 4-1-1-0; Jared Surmon, 4-2-2-2+2HRs; Brandon Bartels, 4-2-3-0; AJ Dollinger, 5-0-0-0; Shad Hintz, 4-0-0-1; Mike Ruzek, 5-0-1-0; Luke Mandich, 0-0-0-0; ~ Totals: 37-7-13-2;
--------------------------------------------------------------------------------------------------------------
7:30pm, At High School Field, Denmark

{3-Stars: --- #1 - Kevin Konkol {DDB} --- #2 - Peter Aerts {DDB} --- #3 - Max Loberger {DDB}

MANITOWOC Heat---000-100-010---2-7-4
-
PITCHING: [Not Available]
-
BATTING: [Not Available]

~@~~~

DENMARK Devilbears---330-001-00x---7-12-0
-
PITCHING: [IP-H-ER-BB-Ks] --- WP-Mitch Kouba, [5.0-3-1-1-2] --- Jereme Jensen, [4.0-4-1-2-2]
-
BATTING: [AB-R-H-RBI] --- Sam Crawford, 5-0-1-0; Jereme Jensen, 5-2-2-0; Peter Aerts, 5-2-3-2; Max Loberger, 4-2-2-1; Kevin Konkol, 4-0-2-3; Jacob Gilson, 1-0-0-0; Mitch Kouba, 2-0-0-1; Trevor DePas, 3-0-0-0; Ryan Steffel, 4-0-0-0; Dick Kouba, 0-0-0-0; Jeff Stueck, 4-0-1-0; ~ Totals: 37-7-12-0;
--------------------------------------------------------------------------------------------------------------

======================================================================================================================================================

THURSDAY, JULY 23rd, 2015

--------------------------------------------------------------------------------------------------------------
7:30pm, At Van Lieshout Park, Little Chute

ALGOMA Guins---[11] ~ WP-Chad LaLuzerne,
~@~~~
LITTLE CHUTE Bandits---[3] ~ LP-?
-
No report on this game.
--------------------------------------------------------------------------------------------------------------

======================================================================================================================================================

FRIDAY, JULY 24TH, 2015

--------------------------------------------------------------------------------------------------------------
7:30pm, At Walsh Field, Two Rivers

LITTLE CHUTE Bandits--[0-4-1]
~@~~~
TWO RIVERS Polar Bears---[10-11-0] ~ WP-Mike Ruzek,
-
No report on this game.
--------------------------------------------------------------------------------------------------------------
7:30pm, At High School Field, Denmark

{3-Stars: --- #1 - Trevor DePas {DDB} --- #2 - Brandon Hintz {DDB} --- #3 - Max Loberger {DDB}

SHEBOYGAN Braves---000-000-0---0-2-3
-
PITCHING: [Not Available]
-
BATTING: [Not Available]

~@~~~

DENMARK Devilbears---415-032-x---15-14-0
-
PITCHING; [IP-H-ER-BB-Ks] --- WP-Trevor DePas, [7.0-2-0-2-7]
-
BATTING: [AB-R-H-RBI] --- Brandon Hintz, 4-4-3-1; Peter Aerts, 4-3-2-1; Max Loberger,4-2-2-2; Kevin Konkol, 3-0-0-0; Mitch Kouba, 3-0-0-0; Brad Daniels, 3-2-2-2; Trevor DePas, 4-1-3-2; Ryan Steffel, 2-1-1-0; Jeff Stueck, 1-0-0-1; Westen Cracraft, 1-0-0-1; Jacob Gilson, 0-0-0-1; Dick Kouba, 1-0-0-0; Robert Mancheski, 1-1-0-0; Tanner Orth, 2-0-0-0; ~ LOB-? ~ Totals: 34-15-14-0;
--------------------------------------------------------------------------------------------------------------
8:00pm, At Memorial Park, Howards Grove

ALGOMA Guins---[8] ~ WP-Chad LaLuzerne,
~@~~~
HOWARDS GROVE Riverdogs---[5] ~ LP-?
-
No report on this game.
--------------------------------------------------------------------------------------------------------------

======================================================================================================================================================

SUNDAY, JULY 26th, 2015

--------------------------------------------------------------------------------------------------------------
12:00pm, At "Field of Dreams" Field, Sheboygan

{3-Stars: --- #1 - Peter Aerts {DDB} --- #2 - Max Loberger {DDB} --- #3 - Ryan Steffel {DDB}

DENMARK Devilbears---442-000-000---10-13-1
-
PITCHING: [IP-H-ER-BB-Ks] --- WP-Peter Aerts, [7.0-3-1-2-7] --- Jereme Jensen, [2.0-2-0-0-1]
-
BATTING: [AB-R-H-RBI] --- Jereme Jensen, 4-2-1-0; Peter Aerts, 5-3-3-0; Max Loberger, 4-2-3-2; Mitch Kouba, 4-3-1-2; Brad Daniels, 4-0-0-0; Ryan Steffel, 5-0-2-3; Sam Crawford, 3-0-1-1; Tanner Orth, 5-0-0-0; Weston Cracraft, 2-0-2-0; Jacob Gilson, 2-0-0-0; Trevor DePas, 3-0-0-0; ~ LOB-? ~ Totals: 41-10-13-1;

~@~~~

SHEBOYGAN Braves---100-000-100---2-5-2
-
PITCHING: [Not Available]
-
BATTING: [Not Available]
--------------------------------------------------------------------------------------------------------------
1:00pm, At Memorial Park, Howards Grove

CASCO Athletics---[?]
~@~~~
HOWARDS GROVE Riverdogs---[?]
-
No report on this game.
--------------------------------------------------------------------------------------------------------------
5:00pm, At Recreation Park, Branch

{3-Stars: --- #1 - Mark Carew {LCB} --- #2 - Clint Lamers {LCB} --- #3 - Calec Emmer {LCB}

LITTLE CHUTE Bandits---011-000-001--- 3-11-3
-
PITCHING: [IP-H-ER-BB-Ks] --- WP-Mark Carew, [9.0-3-9-2-11]
-
BATTING: [AB-R-H-RBI] --- Mitch Ciske, 5-0-0-1; Joe Huss, 5-1-1-0; Spencer Miller, 5-0-2-0; Caleb Emmer, 5-1-2-0; Clint Lamers, 4-1-3-0; John DeBruin, 5-0-1-1; Adam Moyer, 4-0-0-0; Nate Penn, 2-0-0-0; Mark Carew, 4-0-2-0; ~ LOB-13 ~ Totals: 39-3-11-3;

~@~~~

BRANCH Blaze---000-000-000---0-3-0
-
PITCHING: [IP-H-ER-BB-Ks] --- LP-AJ Lorrigan, [9.0-11-2-4-4]
-
BATTING: Zach Berries, 4-0-0-0; Jake Groth, 4-0-0-0; Hunter Saubert, 3-0-1-0; Jason Yeager, 4-0-0-0; Brent Robinson, 4-0-1-0; Ryan "Ace" Lindner, 3-0-0-0; Ben Olson, 2-0-0-0; Luke Kiel, 2-0-0-0; Jon Roberts, 3-0-1-0; AJ Lorrigan, 0-0-0-0; ~ LOB-4 ~ Totals: 29-0-3-0;
--------------------------------------------------------------------------------------------------------------

======================================================================================================================================================

TUESDAY, JULY 28th, 2015

--------------------------------------------------------------------------------------------------------------
7:30pm, At Perry Field, Algoma

{3-Stars: --- #1 - Chad LaLuzerne {ALG} --- #2 - Nick Kita {ALG} --- #3 - Brandon Glaeser {BBZ}

ALGOMA Guins---301-003-000---7-9-2
-
PITCHING: [IP-H-ER-BB-Ks] --- WP-Justin Alexander, [7.0-5-2-4-9] --- Sam Koss, [2.0-2-1-3-3]
-
BATTING: [AB-R-H-RBI] --- Craig Kirchman, 4-2-1-0; Al Karas, 3-1-1-0; Griffin Cole, 2-0-0-0; Nick Kita, 4-3-2-2; Chad LaLuzerne, 4-0-3-3; Justin Alexander, 4-0-0-1; Sam Koss, 1-0-0-0; Austen Dart, 3-0-0-0; Casey Stangel, 0-0-0-0; Jake LeBotte, 5-0-1-0; Riley Bricco, 3-1-1-0; JR Pigeon, 1-0-0-0; Merrick Griffin, 2-0-0-0; ~ LOB-9 ~ Totals: 36-7-9-2;

~@~~~

BRANCH Blaze---110-000-001---3-7-1
-
PITCHING: [IP-H-ER-BB-Ks] --- LP-Jon Roberts, [9.0-9-7-7-8]
-
BATTING: [AB-R-H-RBI] --- Brandon Glaeser, 5-1-3-0; Hunter Saubert, 4-1-0-0; Jason Yeager, 3-0-1-1; Zach Berries, 3-0-0-0; Ryan "Acer" Lindner, 3-0-0-0; Ben Olson, 2-1-1-0; Dan Berries, 1-0-1-0; Luke Kiel, 4-0-0-0; Jon Roberts, 3-0-0-0; AJ Lorrigan, 4-0-1-0; ~ LOB-11 ~ Totals: 32-3-7-1;

Make-Up, Game:
--------------------------------------------------------------------------------------------------------------

======================================================================================================================================================

WEDNESDAY, JULY 29th, 2015

--------------------------------------------------------------------------------------------------------------
7:30pm, At Perry Field, Algoma

{3-Stars: --- #1 - Mike Ruzek {TWR} --- #2 - Chris Casper {TWR} --- #3 - Griffin Cole {ALG}

TWO RIVERS Polar Bears---030-300-8---14-15-1
-
PITCHING: [IP-H-ER-BB-Ks] --- WP-Mike Ruzek, [7.0-7-2-1-7]
-
BATTING: [AB-R-H-RBI] --- Chris Casper, 5-2-2-3; Brandon Bartels, 4-2-2-1; Mike Ruzek, 5-2-3-2; Shad Hintz, 5-2-1-2; Charlie Kiel, 1-0-1-2; AJ Dollinger, 5-1-1-1; Chris Cisler, 0-0-0-0; Jared Surmon, 4-2-2-0; Chris Rohr, 3-2-1-1; Casey Bartels, 3-0-0-1; Derek Klarnowksi, 3-1-2-1; ~ Totals: 38-14-15-1;

~@~~~

ALGOMA Guins---000-002-0---2-7-3
-
PITCHING: [IP-H-ER-BB-Ks] --- LP-Nick Kita, [3.0-9-6-2-3] --- Griffin Cole, [3.2-6-8-5-0] --- Merrick Griffin, [0.1-0-0-1-1]
-
BATTING: [AB-R-H-RBI] --- Sam Koss, 4-0-1-0; Craig Kirchman, 3-1-2-0; Nick Kita, 4-1-1-0; Chad LaLuzerne, 2-0-1-0; Merrick Griffin, 3-0-0-0; Griffin Cole, 3-0-2-2; Jake LeBotte, 1-0-0-0; Austen Dart, 2-0-0-0; Casey Stangel, 3-0-0-0; Riley Bricco, 3-0-0-0; ~ Totals: 28-2-7-3;

[Umpires: Dan Andres, Plate & Jason Ledvina, Bases]
--------------------------------------------------------------------------------------------------------------
7:30pm, At Municipal Field, Manitowoc

KEWAUNEE Chiefs---002-110-320---9-11-2 ~ LP-Alex Honzik,
~@~~~
MANITOWOC Heat---400-010-16x---12-13-3 ~ WP-Nate Becher,
--------------------------------------------------------------------------------------------------------------
7:30pm, At Van Lieshout Park, Little Chute

DENMARK Devilbears---101-300-110---7-8-1
-
PITCHING: [IP-H-ER-BB-Ks] --- WP-Mitch Kouba, [7.0-4-1-1-8] --- Jake Reetz, [2.0-1-1-2-2]
-
BATTING: [AB-R-H-RBI] --- Jeff Struck, 4-0-1-1; Jereme Jensen, 4-2-2-0; Peter Aerts, 4-1-2-0; Max Loberger, 3-0-0-1; Kevin Konkol, 1-0-0-0; Mitch Kouba, 4-1-1-0; Brad Daniels, 4-1-1-1; Ryan Steffel, 2-0-0-0; Trevor DePas, 3-1-1-1; Jake Reetz, 3-0-0-1; Jacob Gilson, 1-0-0-0; Alex Loberger, 2-0-0-0; Tanner Orth, 1-0-0-0; ~ Totals: 36-7-8-1

~@~~~

LITTLE CHUTE Bandits---000-000-102---3-5-3
-
PITCHING: [Not Available]
-
BATTING: [Not Available]
--------------------------------------------------------------------------------------------------------------

======================================================================================================================================================

FRIDAY, JULY 31st, 2015

--------------------------------------------------------------------------------------------------------------
7:30pm, At High School Field, Denmark

ALGOMA Guins---003-004-010---8-14-0
-
PITCHING: [IP-H-ER-BB-Ks] --- [Not Available]
-
BATTING: [AB-R-H-RBI] --- [Not Available]

~@~~~

DENMARK Devilbears---102-100-005---9-19-0
-
PITCHING: [IP-H-ER-BB-Ks] --- WP-Jeff Stueck, [2.0-2-1-1-1] --- Trevor DePas, [5.0-7-3-1-2] --- Jeneme Jensen, [2.0-5-4-2-0]
-
BATTING: [AB-R-H-RBI] --- Brad Daniels, 3-1-2-0; Jacob Gilson, 1-0-0-0; Alex Loberger, 4-3-2-3; Jeneme Jensen, 6-2-3-1; Peter Aerts, 5-0-2-2; Max Loberger, 5-0-1-0; Mitch Kouba, 5-1-2-1; Ben Wyngaard, 2-0-1-1; Ryan Steffel, 5-0-2-0; Trevor DePas, 5-1-2-0; Dick Kouba, 4-1-1-1; ~ LOB-? ~ Totals: 45-9-18-0;
--------------------------------------------------------------------------------------------------------------
7:30pm, At Village Park, Casco

TWO RIVERS Polar Bears---[5-9-1] ~ LP-Luke Mandich.
~@~~~
CASCO Athletics---[6-9-1] ~ WP-?
--------------------------------------------------------------------------------------------------------------
8:00pm, At Memorial Park, Howards Grove

SHEBOYGAN Braves---[8]
~@~~~
HOWARDS GROVE Riverdogs---[5]
--------------------------------------------------------------------------------------------------------------
7:30pm, At Van Lieshout Park, Little Chute

KEWAUNEE Chiefs---[?]
~@~~~
LITTLE CHUTE Bandits---[?]
--------------------------------------------------------------------------------------------------------------

======================================================================================================================================================

SATURDAY, AUGUST 1st, 2015

--------------------------------------------------------------------------------------------------------------
4:00pm, At Recreation Park, Branch

{3-Stars: --- #1 - Luke Kiel {BBZ} --- #2 - AJ Lorrigan {BBZ} --- #3 - Jon Roberts {BBZ}

SHEBOYGAN Braves---000-000-0---0-4-4
-
PITCHING: [IP-H-ER-BB-Ks] --- LP-Aurturo Contreras, [0.0-1-5-4-0] --- Johnny Valdez, [6.0-8-6-1-5]
-
BATTING: [AB-R-H-RBI] --- Josh Makon, 3-0-0-0; Ryan Hamm, 4-0-0-0; Johnny Valdez, 3-0-1-0; Steve Zaletel, 3-0-1-0; Josh Gile, 3-0-1-0; Aurturo Contreras, 2-0-1-0; Freddy Briones, 3-0-0-0; Derrik Kohl, 2-0-0-0; Scotty Heinrich, 3-0-0-0; ~ LOB-8 ~ Totals: 26-0-4-0

~@~~~

BRANCH Blaze---(10)40-000-x---14-9-1
-
PITCHING: [IP-H-ER-BB-Ks] --- WP-AJ Lorrigan, [6.0-4-0-1-7] --- Dan Berries, [1.0-0-0-0-0]
-
BATTING: [AB-R-H-RBI] --- Brandon Glaeser, 4-3-2-1; Jake Groth, 4-1-1-1; Jason Yeager, 2-1-0-1; AJ Lorrigan, 0-0-0-0; Brent Robinson, 3-1-0-1; Hunter Saubert, 2-1-0-2; Zach Berries, 3-1-0-1; Jon Roberts, 4-2-2-1; Luke Kiel, 4-2-3-2; Dan Berries, 4-2-1-2; ~ LOB-6 ~ Totals: 30-14-9-1;
--------------------------------------------------------------------------------------------------------------
4:00pm, At Municipal Field, Manitowoc

{3-Stars: --- #1 - Ashton Holzman {HGR} --- #2 - PJ Weber {HGR} --- #3 - Ryan Halverson {HGR}

HOWARDS GROVE Riverdogs---266-200-(14)---30-29-1
-
PITCHING: [IP-H-ER-BB-Ks] --- WP-P.J. Weber, [4.0-4-0-0-4] --- Noha Steines, [2.0-2-0-0-3] --- Mike Holzman, [1.0-1-0-1-1]
-
BATTING: [AB-R-H-RBI] --- Noha Steines, 5-5-3-2; Cole Reinemann, 6-3-4-1; Ashton Holzman, 7-6-4-8+2-GS-HRs; Nick Keitel, 7-4-5-2; PJ Weber, 6-4-5-2; Mike Holzman, 7-2-2-2; Ryan Halverson, 6-1-3-4; Andrew Reinemann, 6-2-3-2; Lewis Halverson, 3-3-0-1; ~ LOB-14 ~ Totals: 53-30-29-1;

~@~~~

MANITOWOC Heat---000-010-0---1-7-4
-
PITCHING: [IP-H-ER-BB-Ks] --- LP-Chris Froehlich, [2.0-13-7-4-0] --- Josh Shimon, [4.0-12-6-2-1] --- Marcus Trost, [0.0-0-2-2-0] --- Matt Graff, [0.0-4-4-3-0] --- Justin Stenzel, [1.0-4-6-3-0]
-
BATTING: [AB-R-H-RBI] --- Tony Mueller, 2-0-0-0; Matt Graff, 2-0-0-0; Justin Stenzel, 3-1-0-0; Andy Vogt, 4-0-1-0; Chad Schruck, 3-0-1-1; Andy Froehlich, 4-0-1-0; Chris Froehlich, 2-0-1-0; Adam Oakland, 2-0-0-0; Evan Wirtz, 3-0-1-0; Marcus Trost, 1-0-0-0; Josh Shimon, 2-0-1-0; ~ LOB-10 ~ Totals: 30-1-7-4;

(Attn: 18) - (Concessions) - (PA, None) - (Weather: Sunny, Windy, 88 Degrees)

[Umpires: Lee Glaeser, Plate & Lance Laraman, Bases]
--------------------------------------------------------------------------------------------------------------

======================================================================================================================================================

SUNDAY, AUGUST 2nd, 2015

--------------------------------------------------------------------------------------------------------------
12:00pm, At "Field of Dreams" Field, Sheboygan

TWO RIVERS Polar Bears---[17-13-1]
-
PITCHING: [IP-H-ER-BB-Ks] --- WP-Chris Cisler, [5.0-6-1-2-2]

~@~~~

SHEBOYGAN Braves---[1-6-3]
--------------------------------------------------------------------------------------------------------------

======================================================================================================================================================

___________________

End of Regular Season
___________________

======================================================================================================================================================


======================================================================================================================================================
"2015, SHORELAND BASEBALL LEAGUE, PLAYOFFS"
======================================================================================================================================================

WEDNESDAY, AUGUST 5th, 2015

--------------------------------------------------------------------------------------------------------------
"Shoreland Playoffs, Semi-Finals"

7:30pm, At High School Field, Denmark

[Game 1]

TWO RIVERS Polar Bears---[6]
~@~~~
DENMARK Devilbears---[4]
--------------------------------------------------------------------------------------------------------------
7:30pm, At Van Lieshout Park, Little Chute

[Game 1]

CASCO Athletics---[2]
~@~~~
LITTLE CHUTE Bandits---[1]
--------------------------------------------------------------------------------------------------------------

======================================================================================================================================================

FRIDAY, AUGUST 7th, 2015

--------------------------------------------------------------------------------------------------------------
"Shoreland Playoffs, Semi-Finals"

7:30pm, At Walsh Field, Two Rivers

[Game 2]

DENMARK Devilbears
~@~~~----------------------[PPD-Rain]
TWO RIVERS Polar Bears
--------------------------------------------------------------------------------------------------------------
7:30pm, At Village Park, Casco

[Game 2]

LITTLE CHUTE Bandits
~@~~~-----------------------[PPD-Rain]
CASCO Athletics
--------------------------------------------------------------------------------------------------------------

======================================================================================================================================================

SATURDAY, AUGUST 8th, 2015

--------------------------------------------------------------------------------------------------------------
"Shoreland Playoffs, Semi-Finals"
--------------------------------------------------------------------------------------------------------------
12:00pm, At Walsh Field, Two Rivers

[Game 2]

DENMARK Devilbears---[0]
~@~~~
TWO RIVERS Polar Bears---[2]
--------------------------------------------------------------------------------------------------------------
2:30pm, At Village Park, Casco

[Game 2]

LITTLE CHUTE Bandits---[1]
~@~~~
CASCO Athletics---[6]
--------------------------------------------------------------------------------------------------------------

======================================================================================================================================================

WEDNESDAY, AUGUST 12th, 2015

--------------------------------------------------------------------------------------------------------------
"2015, Shoreland Grand Championship Series"

"Best Of Three"

7:30pm, At Village Park, Casco

[Game 1]

TWO RIVERS Polar Bears
~@~~~
CASCO Athletics
--------------------------------------------------------------------------------------------------------------

======================================================================================================================================================

FRIDAY, AUGUST 14th, 2015

--------------------------------------------------------------------------------------------------------------
"2015, Shoreland Grand Championship Series"
--------------------------------------------------------------------------------------------------------------
7:30pm, At Walsh Field, Two Rivers

[Game 2]

CASCO Athletics
~@~~~
TWO RIVERS Polar Bears
--------------------------------------------------------------------------------------------------------------

======================================================================================================================================================

SUNDAY, AUGUST 16th, 2015

--------------------------------------------------------------------------------------------------------------
"2015, Shoreland Grand Championship Series"
--------------------------------------------------------------------------------------------------------------

7:30pm, At CASCO, [If Necessary]

--------------------------------------------------------------------------------------------------------------

======================================================================================================================================================

=
=
=
=
=

======================================================================================================================================================
======================================================================================================================================================

SHORELAND BASEBALL LEAGUE, "HISTORY"

======================================================================================================================================================

2015, SHORELAND League, "FINAL" Standings

------W--L---.PCT----TEAMS
-----17---1---.929------CASCO Athletics
-----15---3---.833------TWO RIVERS Polar Bears
-----14---4---.765------DENMARK Devilbears
-----13---5---.714------LITTLE CHUTE Bandits
-----10---8---.588------ALGOMA Guins
------5--13---.278------KEWAUNEE Chiefs
------5--13---.278------HOWARDS GROVE Riverdogs
------4--14---.222------MANITOWOC Heat
------4--14---.222------BRANCH Blaze
------4--14---.222------SHEBOYGAN Braves

2015, Grand Champions - TWO RIVERS Polar Bears

======================================================================================================================================================

2014, SHORELAND League, "FINAL" Standings

------W--L---.PCT----TEAMS
-----13---3---.813-----DENMARK Devilbears
-----12---4---.750-----LITTLE CHUTE Bandits
-----12---4---.750-----TWO RIVERS Polar Bears
-----12---4---.750-----CASCO Athletics
------9---7---.563-----ALGOMA Guins
------5--11---.313-----KEWAUNEE Chiefs
------3--13---.188-----MANITOWOC Heat
------3--13---.188-----BRANCH Blaze
------3--13---.188-----SHEBOYGAN Braves


2014 - Grand Champions - DENMARK Devilbears

======================================================================================================================================================

2013, SHORELAND BASEBALL League, "FINAL" Standings

------W--L----.PCT----TEAMS
-----12---2----.857-----TWO RIVERS Polar Bears
-----11---3----.785-----DENMARK Devilbears
------9---5----.643-----CASCO Athletics
------9---5----.643-----LITTLE CHUTE Bandits
------7---7----.500-----ALGOMA Guins
------4--10----.286-----KEWAUNEE Chiefs
------2--12----.143-----BRANCH Blaze
------2--12----.143-----MANITOWOC Heat

2013 - Grand Champions - TWO RIVERS Polar Bears

======================================================================================================================================================

2012, SHORELAND BASEBALL League, "FINAL" Standings

------W--L---.PCT----TEAMS
-----15---3---.833-----CASCO Athletics
-----13---5---.722-----DENMARK Devilbears
-----12---6---.667-----TWO RIVERS Polar Bears
-----11---7---.611-----KEWAUNEE Chiefs
------6--12---.333-----BRANCH Blaze
------5--13---.278-----ALGOMA Guins
------1--17---.056-----MANITOWOC Heat

2012 - Grand Champions - TWO RIVERS Polar Bears

======================================================================================================================================================

2011, SHORELAND BASEBALL League, "FINAL" Standings

------W--L---.PCT----TEAMS
------15---3---.833-----DENMARK Devilbears
------13---5---.722-----KEWAUNEE Chiefs
------12---6---.667-----ALGOMA Guins
------10---8---.556-----CASCO Athletics
-------9---9---.500-----TWO RIVERS Polar Bears
-------4--14---.222-----BRANCH Blaze
-------0--18---.000-----MANITOWOC Heat

Grand Champions: DENMARK Devilbears

======================================================================================================================================================

2010, SHORELAND BASEBALL League, "FINAL" Standings

------W--L---.PCT----TEAMS
------16---2---.875-----DENMARK Devilbears
------13---5---.722-----KEWAUNEE Chiefs
------11---7---.611-----ALGOMA Guins
------10---8---.556-----CASCO Athletics
-------9---9---.500-----BRANCH Blaze
-------4--14---.222-----TWO RIVERS Polar Bears
-------0--18---.000-----MANITOWOC Heat

Grand Champions: DENMARK Devilbears

======================================================================================================================================================



======================================================================================================================================================
======================================================================================================================================================

SHORELAND BASEBALL LEAGUE ~ "HISTORY"

======================================================================================================================================================
____________
2014, Season
-
Grand Champions: DENMARK Devilbears
Season Champions: DENMARK Devilbears
Batting Champ: ?
Pitching: ?
Shoreland, MVP ?

======================================================================================================================================================
_____________
2013, Season
-



======================================================================================================================================================
____________
2012, Season
-
Grand Champions: TWO RIVERS Polar Bears
Season Champions: CASCO Athleics
Batting Champ: Mike Ruzack, Two Rivers Polar Bears - .497
Pitching Honors: Mike Ruzack, Two Rivers Polar Bears
Shoreland MVP: Mike Ruzack, Two Rivers Polar Bears ~ (Triple Crown Winner)

======================================================================================================================================================
____________
2011, Season
-
Grand Champions: DENMARK Devilbears
Batting Champ: Dave Paplham, Kewaunee Chiefs - .412
Pitching Honors: Chad LaLuzerne, Algoma Guins
Shoreland MVP: Tanner Ledvina, Kewaunee Chiefs

======================================================================================================================================================
____________
2010, Season
-
Grand Champions: DENMARK Devilbears
Batting Champ: Ben Jaeger, Denmark Devilbears
Pitching Honors: Casey Mumper, Kewaunee Chiefs
Shoreland MVP: Casey Mumper, Kewaunee Chiefs

======================================================================================================================================================
____________
2009, Season
-
Grand Champions: DENMARK Devilbears
Batting Champion: Lawton Pieschek, Denmark Devilbears
Pitching Honors: Jason Arendt, Casco Athletics
Shoreland MVP: Lawton Pieschek, Denmark Devilbears

======================================================================================================================================================
____________
2008, Season
-
Grand Champions: DENMARK Devilbears
Batting Champ: Paul Smith, Branch Blaze - .406
Pitching Honors: Alex Ackerman, Algoma Guins
Shoreland MVP: Doug Novak, Algoma Guins

======================================================================================================================================================
____________
2007, Season
-
Grand Champions: DENMARK Devilbears
Batting Champ: Dominic White, Oneida Braves - .403
Pitching Honors: Casey Mumper, Kewaunee Chiefs
Shoreland MVP: Casey Mumper, Kewaunee Chiefs

======================================================================================================================================================
____________
2006, Season
-
Grand Champions: KEWAUNEE Chiefs
Season Champions: ALGOMA Guins
Batting Champ: Tom Schmidt, Two Rivers Polar Bears - .412
Pitching Honors: Ryan Klessig, Algoma Guins
Shoreland MVP: John Mleziva, Casco Athletics

======================================================================================================================================================
____________
2005, Season
-
Grand Champions: CASCO Athletics
Batting Champ: Ben Jewsen, Two Rivers Polar Bears - .415
Pitching Honors: Justin Massey, Casco Athletics
Shoreland MVP: Keith Danforh, Oneida Braves

======================================================================================================================================================
____________
2004, Season
-
Grand Champions: CASCO Athletics
Batting Champ: Ben Jewsen, Two Rivers Polar Bears - .556
Pitching Honors: Chris Thousand, Howards Grove A-C's
Shoreland MVP: John Bray, Casco Athletics

======================================================================================================================================================
____________
2003, Season
-
Grand Champions: HOWARDS GROVE A-C's
Batting Champ: John Bray, Casco Athletics - .494
Pitching Honors: Ryan Shaw, Howards Grove A-C's & Brad Novak, Algoma Guins
Shoreland MVP: John Bray, Casco Athletics

======================================================================================================================================================
____________
2002, Season
-
Grand Champions: CASCO Athletics
Batting Champ: Jason Arendt, Casco Athletics - .531
Pitching Honors: Jason Arendt, Casco Athletics
Shoreland MVP: Ryan Klessig, Algoma Guins

======================================================================================================================================================
____________
2001, Season
-
Grand Champions: DePERE River Bandits
Batting Champ: P.J. Weber, Howards Grove A-C's - .513
Pitching Honors: Justin Massey, Casco Athletics
Shoreland MVP: Jason Stangel, Kewaunee Chiefs

======================================================================================================================================================
____________
2000, Season
-
Grand Champions: HOWARDS GROVE A-C's
Batting Champ: Kelly O'Brian, DePere River Bandits - .416
Pitching Honors: Joe Rukamp, DePrer River Bandits
Shoreland MVP's: Lance Hill, Oneida Braves & Matt Woodrow, Howards Grove A-C's

======================================================================================================================================================
____________
1999, Season
-
Grand Champions: DePERE River Bandits
Batting Champ: Brett Sparth, DePere River Bandits - .536
Pitching Honors: Joe Rukamp, DePere River Bandits
Shoreland MVP: Jason Rohr, Kewaunee Chiefs

======================================================================================================================================================
____________
1998, Season
-
Grand Champions: MENASHA Macs
Batting Champ: Jason Rohr, Kewaunee Chiefs - .506
Pitching Honors: Joe Rukamp, DePere River Bandits
Shoreland MVP: Dan Yagodinski, Casco Athletics

======================================================================================================================================================
____________
1997, Season
-
Grand Champions: MENASHA Macs
Season Champions: KAUKAUNA Cattle Dogs
Batting Champ: Corrie Zimmerman, Algoma Guins - .458
Pitching Honors: Joe Rukamp, DePere River Bandits
Shoreland MVP: Corrie Zimmerman, Algoma Guins

======================================================================================================================================================
____________
1996, Season
-
Grand Champions: KEWAUNEE Chiefs
Batting Champ: Jason Barlett, Ashwaubeon Cubs - .451
Pitching Honors: Ben Gorres, Menasha Macs
Shoreland MVP: Dan Yagodinski, Casco Athletics

======================================================================================================================================================
____________
1995, Season
-
Grand Champions: ASHWAUBEON Cubs
Batting Champ: Jamie Hennen, Howards Grove A-C's - .472
Pitching Honors: Brian Skatz, Howards Grove A-C's
Shoreland MVP: Brian Skatz, Howards Grove A-C's

======================================================================================================================================================
____________
1994, Season
-
Grand Champions: MENASHA Macs
Batting Champ: Jamie Hennen, Howards Grove A-C's - .467
Pitching Honors: Mark Woerfel, Menasha Macs
Shoreland MVP: Jamie Hennen, Howards Grove A-C's

======================================================================================================================================================
____________
1993, Season
-
Grand Champions: HOWARDS GROVE A-C's
Batting Champ: Dan Yagodinski, Casco Athletics - .456 (Triple Crown Winner)
Shoreland MVP: Dan Yagodinski, Casco Athletics

======================================================================================================================================================
____________
1992, Season
-
Grand Champions: BRANCH Blaze
Batting Champ: Jeff Schomberg, Howards Grove A-C's - .448
Shoreland MVP: No Award Givin

======================================================================================================================================================
____________
1991, Season
-
Grand Champions: HOWARDS GROVE A-C's
Batting Champ: Brian Cashore, Branch Blaze - .493
Shoreland MVP: Dan Yagodinski, Casco Athletics

======================================================================================================================================================
____________
1990, Season
-
Grand Champions: HOWARDS GROVE A-C's
Batting Champ: Rick Meyer, Howards Grove A-C's - .500
Shoreland MVP: Dennis King, Oneida Braves

======================================================================================================================================================
____________
1989, Season
-
Grand Champions: HOWARDS GROVE A-C's
Batting Champ: Mike Jacques, Ashwaubeon Cubs - .473
Shoreland MVP: Mike Jacques, Ashwaubeon Cubs (Triple Crown Winner)

======================================================================================================================================================
____________
1988, Season
-
Grand Champions: HOWARDS GROVE A-C's
Batting Champ: Jeff Schonburg, Howards Grove - .537
Shoreland MVP: Jeff Schonburg, Howards Grove

======================================================================================================================================================
____________
1987, Season
-
Grand Champions: KEWAUKEE Chiefs
Batting Champ: Chris Kohnle, Kewaunee Chiefs - .507 (Triple Crown Winner)
Shoreland MVP: Mark Hinski, Menaska Macs

======================================================================================================================================================
____________
1986, Season
-
Grand Champions: KIMBERLY
Season Champs: Ashwaubeon Cubs
Batting Champ: Greg Schabern, Kimberly - .???
Shoreland MVP: Greg Schabern, Kimberly

======================================================================================================================================================
____________
1985, Season
-
Grnad Champions: ASHWAUBE0N Cubs
Batting Champ: Paul Hermann, Twin Cities - .508
Shoreland MVP: Tim Carney, Ashwaubeon Cubs

======================================================================================================================================================
____________
1984, Season
-
Grand Champions: HOWARDS GROVE A-C's
Batting Champ: Dan Miller, Howards Grove A-C's - .541
Shoreland MVP: Dan Miller, Howards Grove A-C's

======================================================================================================================================================
____________
1983, Season
-
Grand Champions: HOWARDS GROVE A-C's
Batting Champ: Ed King, Jr., Oneida Braves - .419
Shoreland MVP: Pete Guth, Algoma Penguins

======================================================================================================================================================
____________
1982, Season
-
Grand Champions: Unknown
Batting Champ: Randy Foyt, Casco Athletics - .527
Shoreland MVP: Randy Foyt, Casco Athletics (Triple Crown Winner)

======================================================================================================================================================
____________
1981, Season
-
Grand Champions: HOWARDS GROVE A-C's
Batting Champ: Brian Hipple, Howards Grove A-C's - .???
Shoreland MVP: Gig Christensen, Howards Grove A-C's

======================================================================================================================================================
____________
1980, Season
-
Grand Champions: HOWARDS GROVE A-C's
Batting Champ: Mark Kuhn, Howards Grove A-C's - .391
Shoreland MVP: Terry Berkawitz, Howards Grove A-C's

======================================================================================================================================================
____________
1979, Season
-
Grand Champions: Unknown
Batting Champ: Dave Wagner, Cleveland Wildcats - .456
Shoreland MVP: Dave Wagner, Cleveland Wildcats

======================================================================================================================================================
____________
1978, Season
-
Grand Champions: HOWARDS GROVE A-C's
Batting Champ: Clete Wagner, Cleveland Wildcats - .426
Shoreland MVP: Wayne Bottenger, Howards Grove A-C's

======================================================================================================================================================
____________
1977, Season
-
Grand Champions: TWO RIVERS Polar Bears
Batting Champ: Lee Wetenkamp, Two Rivers Polar Bears - .???
Shoreland MVP: Lee Wetenkamp. Two Rivers Polar Bears

======================================================================================================================================================
____________
1976, Season
-
Grand Champions: TWO RIVERS Polar Bears
Batting Champ: Robert Laack, Howards Grove A-C's
Shoreland MVP: Denny Hrdina, Two Rivers Polar Bears

======================================================================================================================================================
____________
1975, Season
-
Grand Champions: Unknown
Batting Champ: Bill Shaw, Kewaunee Chiefs - .489
Shoreland MVP: Denny Hrdina, Two Rivers Polar Bears

======================================================================================================================================================
____________
1974, Season
-
Grand Champions: TWO RIVERS Polar Bears
Batting Champ: Gaylord Mauer, Algoma Penguins - .400
Shoreland MVP: Paul Oswald, Two Rivers Polar Bears

======================================================================================================================================================
____________
1973, Season
-
Grand Champions: KEWAUNEE Chiefs
Batting Champ: Lee Bogenschultz, Cleveland Wildcats - .494
Shoreland MVP: Denny Hrdina, Two Rivers Polar Bears

======================================================================================================================================================
____________
1972, Season
-
Grand Champions: KEWAUNEE Chiefs
Batting Champ: Pete Rohr, Kewaunee Chiefs - .???
Shoreland MVP: Jim Cullen, Cleveland Wildcats

======================================================================================================================================================
____________
1971, Season
-
Grand Champions: Unknown
Batting Champ: Larry Witt, Manitowoc Panthers - .428
Shoreland MVP: Dennis Semph, Howards Grove A-C's

======================================================================================================================================================
____________
1970, Season
-
Grand Champions: HOWARDS GROVE A-C's
Batting Champ: Dom Guetchow, Two Rivers Polar Bears - .477
Shoreland MVP: Jim Lallemont, Howards Grove A-C's

======================================================================================================================================================
____________
1969, Season
-
Grand Champions: HOWARDS GROVE A-C's
Batting Champ: Mark Miller, Valders Oilers - .520
Shoreland MVP: Robert Laack, Howards Grove A-C's

======================================================================================================================================================
____________
1968, Season
-
Grand Champions: CLEVELAND Wildcats
Batting Champ: Jim Lallemont, Howards Grover A-C's - .450
Shoreland MVP: Bill Grimm, Two Rivers Polar Bears

======================================================================================================================================================
____________
1967, Season
-
Grand Champions: HOWARDS GROVE A-C's
Manager Of The Year: Hank Semph
Batting Champ: Larry Schomburg, Howards Grove A-C's - .480
Shoreland MVP: Bill Grimm, Two Rivers Polar Bears

======================================================================================================================================================

---------------------------------------------------------------------------------------------------------------------------------------------------------------------
"Jack O' Diamonds" Sprecher, - Algoma City Baseball Historian, - www.leaguelineup.com/algomaguins - jack1240blues@charter.net
---------------------------------------------------------------------------------------------------------------------------------------------------------------------

======================================================================================================================================================


Venue Information and Directions


Click here for more information