LEAGUES, SCHEDULES, STANDINGS, RESULTS

Subscribe to our Newsletter
Back to Previous Page

Old, ROCK RIVER BASEBALL LEAGUE, North

Date(s):   5/1/2015 - 9/1/2015
Contact Info:

General Information .=============================================================

-------------------------------------------------------
(Last Updated: September 27th, 2017)
------------------------------------------------------

==============================================================
.
2017, Old ROCK RIVER BASEBALL LEAGUE, "NORTHERN"
.

"NORTHEAST" Division, "FINAL" Standings

------W--L---.PCT----TEAMS
-----11---5---.688------CEDARBURG Mercs
-----11---5---.688------KEWASKUM A's
-----10---6---.625------PLYMOUTH Flames
------7---9---.428------THIENSVILLE-MEQUON Twins
------7---9---.438------SAUKVILLE Saints
------0--16---.000------WEST BEND Benders

--------------------------------------------------------------------------------------------------------------

"NORTHWEST" Division, "FINAL" Standings

------W--L---.PCT----TEAMS
-----14---2---.875--------HUSTISFORD Astros
-----10---6---.625--------HARTFORD Hawks
-----10---6---.625--------BROWNVILLE 49ers
------8---8---.500--------RUBICON Red Sox
------5--11---.312--------OAKFIELD Oaks
------3--13---.188--------SLINGER Stingers

-------------------------------------------------------

_______________________________________

Team, VENUES:
-
SAUKVILLE, "Fred Dickmann Field"
HARTFORD, "West Side Park"
RUBICON, "St. John's Park"
WEST BEND, "Carl Kuss Field"
THIESVILLE-MEQUON, "Rennicke Field"
OAKFIELD, "Village Park"
CEDARBURG, "Behling Field"
KEWASKUM, "Kiwanis Park"
SLINGER, "High School Field"
HUSTISFORD, "Village Park"
BROWNSVILLE, "Dale R. Michels Memorial Park"
PLYMOUTH, "Carl Loebe Field"
________________________________________

--------------------------------------------------------------------------------------------------------------

2017, SCHEDULE & RESULTS

--------------------------------------------------------------------------------------------------------------

==============================================================

SUNDAY, MAY 7th, 2017

--------------------------------------------------------------------------------------------------------------
%%%%%%%%%%%%%%%%%%%%%%%%%%%%%%%%%%%%%%%%%%%%%%
-------------------------------------------------------
1:30pm, At Village Park, Hustisford

{Games "3-Stars"

#1 - Derek Picper, (HFA)

#2 - Cale Klink, (HFH)

#3 - Andrew Nemmers, (HFA)

-----------------------------------------------------
[BOX-SCORE]
-
HARTFORD Hawks---140-110-002-000-000---9-13-5
-
[PITCHING: (IP-H-ER-BB-SO) --- LP-Zack Christoperson, [7.2-7-1-3-5]

Matt Bubrow, [2.2-4-5-5-5] --- Kevin Dineen, [4.1-3-1-3-4]
-
[BATTING: (AB-R-H-RBI) --- Jordan Stephans, 6-0-0-0;

Tom Kluck, 7-1-1-0; Zack Christopherson, 4-1-0-2;

Dalton Groves, 7-0-4-1; Jim Kluck, 7-0-0-1;

Cale Klink, 6-2-4-1+HR; Brent Willians, 5-2-1-0;

Aaron Stephans, 2-1-0-0; Matt Finley, 5-0-0-0;

Taylor Renzaglia, 7-2-3-2;

TOTALS: 56-9-13-5;

~@~~~

HUSTISFORD Astros---210-410-100-000-001---10-14-4
-
[PITCHING: (IP-H-ER-BB-SO) --- WP-Andrew Nemmers, [3.0-2-0-1-3]

Derek Pieper, [10.0-8-2-7-6] --- Shawn Held, [2.0-3-4-4-4]
-
[BATTING: (AB-R-H-RBI) --- John Ellenberger, 4-2-1-0;

Jami Kaul, 6-1-2-1; Casey Simon, 6-0-1-1;

Tanner Galleazzi, 8-1-1-1; Andrew Nemmers, 8-1-3-1;

Shawn Held, 7-2-2-2+HR; Warren Brauschweig, 2-1-1-0;

Tim Tallman, 3-0-2-1; Sam Rocseler, 4-1-1-0;

TOTALS: 53-10-14-4;

-------------------------------------------------------
%%%%%%%%%%%%%%%%%%%%%%%%%%%%%%%%%%%%%%%%%%%%%%
--------------------------------------------------------------------------------------------------------------
1:30pm, KEWASKUM A's, [-7-] @ OAKFIELD Oaks, [-5-]
--------------------------------------------------------------------------------------------------------------
1:30pm, SAUKVILLE Saints, [-0-] @ RUBICON Red Sox, [-16-]
--------------------------------------------------------------------------------------------------------------
1:30pm, BROWNSVILLE 49ers, [-9-] @ SLINGER Stingers, [-3-]
--------------------------------------------------------------------------------------------------------------

==============================================================

SUNDAY, MAY 14th, 2017 --- "Mother's Day"

--------------------------------------------------------------------------------------------------------------
1:30pm, RUBICON Red Sox, [-6-] @ BROWNSVILLE 49ers, [-8-]
--------------------------------------------------------------------------------------------------------------
1:30pm, WEST BEND Benders, [-0-] @ HUSTISFORD Astros, [-14-]
--------------------------------------------------------------------------------------------------------------
1:30pm, HARTFORD Hawks, [-5-] @ OAKFIELD Oaks, [-6-]
--------------------------------------------------------------------------------------------------------------
1:30pm, KEWASKUM A's, [-7-] @ SAUKVILLE Saints, [-2-]
--------------------------------------------------------------------------------------------------------------
%%%%%%%%%%%%%%%%%%%%%%%%%%%%%%%%%%%%%%%%%%%%%%
-------------------------------------------------------
1:30pm, At High School Field,

{Game "3-Stars"

#1 - Dan Sabin, (STS)

#2 - Derek Merkes, (STS)

#3 - Brandon Nedoma, (CBM)

-------------------------------------------------------
[BOX SCORE]
-
CEDERBURG Mercs---000-000-050---5-10-2
-
[PITCHING: (IP-H-ER-BB-SO) --- LP-Taylor Piel, [2.1-4-1-3-4]

Joe Daniels, [6.2-8-4-2-5]
-
[BATTING: (AB-R-H-RBI) --- Kraig Perlberg, 5-1-0-0;

Brandon Nedoma, 5-1-2-2; Zack Lauterbach, 5-1-2-0;

Tayler Pied, 4-0-1-0; Nick Boehnlein, 4-0-1-0;

Troy White, 3-0-1-0; Joe Reichhart, 4-0-1-1;

Christian Kadrich, 4-1-1-0; Joe Daniels, 3-1-0-0;

TOTALS: 37-5-9-2,

~@~~~

SLINGER Stingers---100-000-401---6-12-3
-
[PITCHING: (IP-H-ER-BB-SO] --- WP-Austin Massey, [9.0-10-2-3-0]
-
[BATTING: (AB-R-H-RBI) --- Jared Merten, 5-1-1-0;

Derek Merkes, 4-3-3-1; Dan Sabin, 5-0-3-2;

Brandon Seaver, 4-0-1-0; John Sprayberry, 4-0-0-1;

Max Merkes, 4-0-1-0; Ben Lee, 4-0-2-0;

Jon Rauh, 4-1-1-0; --- TOTALS: 35-6-12-3,

-------------------------------------------------------
%%%%%%%%%%%%%%%%%%%%%%%%%%%%%%%%%%%%%%%%%%%%%%
--------------------------------------------------------------------------------------------------------------
1:30pm, PLYMOUTH Flames, [-14-] @ THIESVILLE-MEQUON Twins, [-1-]
--------------------------------------------------------------------------------------------------------------

==============================================================

FRIDAY, MAY 19th, 2017

--------------------------------------------------------------------------------------------------------------
7:30pm, SAUKVILLE Saints, [-2-] @ HARTFORD Hawks, [-9-]
--------------------------------------------------------------------------------------------------------------
7:30pm, KEWASKUM A's, [-4-] @ HUSTISFORD Astros, [-12-]
--------------------------------------------------------------------------------------------------------------

==============================================================

SATURDAY, MAY 20th, 2017

--------------------------------------------------------------------------------------------------------------
1:30pm, SLINGER Stingers, [-0-] @ PLYMOUTH Flames, [-9-]
--------------------------------------------------------------------------------------------------------------
1:30pm, WEST BEND Benders, [-ppd-] @ RUBICON Red Sox, [-ppd-]
--------------------------------------------------------------------------------------------------------------
1:30pm, KEWAUKUM A's, [-ppd-] @ HARTFORD Hawks, [-ppd-]
--------------------------------------------------------------------------------------------------------------

==============================================================

SUNDAY, MAY 21st, 2017

--------------------------------------------------------------------------------------------------------------
1:30pm, CEDERBURG Mercs, [-ppd-] @ PLYMOUTH Flames, [-ppd-]
--------------------------------------------------------------------------------------------------------------
1:30pm, OAKFIELD Oaks, [-3-] @ RUBICON Red Sox, [-6-]
--------------------------------------------------------------------------------------------------------------
1:30pm, WEST BEND Benders, [-0-] @ SAUKVILLE Saints, [-14-] --- (7in)
--------------------------------------------------------------------------------------------------------------
1:30pm, SLINGER Stingers, [-2-] @ HUSTISFORD Astros, [-3-]
--------------------------------------------------------------------------------------------------------------
%%%%%%%%%%%%%%%%%%%%%%%%%%%%%%%%%%%%%%%%%%%%%%
-------------------------------------------------------
1:30pm, At Rennicke Field,

{Games: "3-Stars"

#1 - Dylan Gausman, (TMT)

#2 - Christian Athturs, (B49)

#3 - Ryan Worm, (TMT)

-------------------------------------------------------
[BOX SCORE]
-
BROWNSVILLE 49ers---000-000-002---2-9-1
-
[PITCHING: (IP-H-ER-BB-SO) --- LP-Jordan DeBoer, [7.0-2-3-3-6] --- Luke Gellings, [1.0-1-1-2-1]
-
[BATTING: (AB-R-H-RBI) --- Luke Gellings, 5-0-3-0;

Christian Arthers, 5-0-2-2; Jordan DeBoer, 5-0-0-0;

James Goodfellow, 2-0-0-0; Jace Unrein, 5-0-2-0;

John Cetvar, 4-0-0-0; Nolan Carver, 3-0-1-0;

Parker Parrish, 4-0-1-0; Paul Tovstad, 3-1-0-0; --- TOTALS: 36-1-9-1;

~@~~~

THIENSVILLE-MEQUON Twins---021-000-01x---4-3-2
-
[PITCHING: (IP-H-ER-BB-SO) --- WP-Dylan Gausman, [9.0-9-2-6-8]
-
[BATTING: (AB-R-H-RBI) --- Jim Doedens, 4-0-0-0;

Luke Scheuerlein, 2-1-0-0; Kyle Rogers, 0-0-0-0;

Dylan Gausman, 4-0-0-0; Ryan Worm, 3-0-2-1;

Jake Parrott, 2-1-0-1; Eric Wade, 3-1-0-0;

Javvin Redicske, 2-0-0-0; Zack Prideaux, 3-0-1-2;

Alec Tomkiewicz, 3-0-0-0; --- TOTALS: 26-3-3-2;

-------------------------------------------------------
%%%%%%%%%%%%%%%%%%%%%%%%%%%%%%%%%%%%%%%%%%%%%%
--------------------------------------------------------------------------------------------------------------

==============================================================

WEDNESDAY, MAY 24th, 2017

--------------------------------------------------------------------------------------------------------------
7:30pm, KEWASKUM A's, [-29-]@ WEST BEND Benders, [-2-]
--------------------------------------------------------------------------------------------------------------

==============================================================

FRIDAY, MAY 26th, 2017

--------------------------------------------------------------------------------------------------------------
7:30pm, HUSTISFORD Astros, [-ppd-] @ BROWNSVILLE 49ers, [-ppd-]
--------------------------------------------------------------------------------------------------------------
7:30pm, SLINGER Stingers, [-2-] @ HARTFORD Hawks, [-6-]
--------------------------------------------------------------------------------------------------------------
7:30pm, OAKFIELD Oaks, [-2-] @ PLYMOUTH Flames, [-8-]
--------------------------------------------------------------------------------------------------------------

==============================================================

SUNDAY, MAY 28th, 2017

--------------------------------------------------------------------------------------------------------------
1:30pm, PLYMOUTH Flames, [-ppd-] @ KEWASKUM A's, [-ppd-]
--------------------------------------------------------------------------------------------------------------
1:30pm, BROWNSVILLE 49ers, [-ppd-] @ OAKFIELD Oaks, [-ppd-]
--------------------------------------------------------------------------------------------------------------
1:30pm, SLINGER Stingers, [-ppd-] @ SAUKVILLE Saints, [-ppd-]
--------------------------------------------------------------------------------------------------------------
1:30pm, CEDERBURG Mercs, [-ppd-] @ THIENSVILLE-MEQUON Twins, [-ppd-]
--------------------------------------------------------------------------------------------------------------

==============================================================

MONDAY, MAY 29th, 2017

--------------------------------------------------------------------------------------------------------------
1:30pm, RUBICON Red Sox, [-ppd-] @ CEDARBURG Mercs, [-ppd-]
--------------------------------------------------------------------------------------------------------------

==============================================================

WEDNESDAY, MAY 31st, 2017

--------------------------------------------------------------------------------------------------------------
%%%%%%%%%%%%%%%%%%%%%%%%%%%%%%%%%%%%%%%%%%%%%%
-------------------------------------------------------
7:30pm, At Carl Kuss Field, West Bend

{Games: "3-Stars"

#1 - Dylan Gausman, (TMT)

#2 - Mike Hensel, (KWA)

#3 - Eric Wade, (TMT)

-------------------------------------------------------
[BOX SCORE]
-
THIENSVILLE-MEQUON Twins---201-003-410---11-13-1
-
[Pitching: (IP-H-ER-BB-SO) --- WP-Dylan Gausman, [9.0-12-7-8-5]
-
[Batting: (AB-R-H-RBI) --- Alec Wardler, 1-1-1-0;

Luke Scheuerlein, 4-4-2-0; Dylan Gausman, 5-0-3-2;

Ryan Worm, 4-1-0-1; Eric Wade, 4-2-2-1;

Jim Doedens, 4-0-0-0; Alec Tomkiewick, 4-1-2-1;

Zack Prideaux, 3-0-1-2; Hunter Betts, 5-0-0-1;

Kyle Rogers, 1-0-0-0; Tom Hartwick, 1-0-0-0; ---
TOTALS: 41-11-13-1;

~@~~~

KEWASKUM A's---301-000-003---7-11-7
-
[Pitching: (IP-H-ER-BB-SO) --- LP-Jim Ziegler, [6.0-9-3-1-2] --- Jordan Dreikosen, [1.0-2-2-2-0]

Mack Miller, [1.0-0-0-1-0] --- Brad Young, [1.0-1-0-1-0]
-
[Batting: (AB-R-H-RBI) --- Brad Young, 5-1-3-2; Nick Rosenthal, 5-1-0-0;

Adam Sarauer, 3-2-1-1; Nate Grzybowski, 4-1-2-1;

Mike Hensel, 4-1-3-1; Sam Zarling, 5-1-2-1;

Mike Prochnow, 4-0-0-1; Turner Wagie, 3-0-1-0;

Anthony Matic, 5-0-0-0; Jim Zigler, 0-0-0-0;

Jordan Dreikosen, 0-0-0-0; Mack Miller, 0-0-0-0;

TOTALS: 38-7-12-7; @ West Bend,
-------------------------------------------------------
%%%%%%%%%%%%%%%%%%%%%%%%%%%%%%%%%%%%%%%%%%%%%%
--------------------------------------------------------------------------------------------------------------
7:30pm, WEST BEND Benders, [--] @ PLYMOUTH Flames, [--]
--------------------------------------------------------------------------------------------------------------

==============================================================

FRIDAY, JUNE 2nd, 2017

--------------------------------------------------------------------------------------------------------------
7:30pm, HARTFORD Hawks, [-7-] @ BROWNSVILLE 49ers, [-4-]
--------------------------------------------------------------------------------------------------------------

==============================================================

SUNDAY, JUNE 4th, 2017

--------------------------------------------------------------------------------------------------------------
1:30pm, RUBICON Red Sox, [-7-] @ HUSTISFORD Astros, [-8-]
--------------------------------------------------------------------------------------------------------------
1:30pm, CEDERBURG Mercs, [-11-] @ SAUKVILLE Saints, [-1-]
--------------------------------------------------------------------------------------------------------------
1:30pm, THIENSVILLE-MEQUON Twins, [-3-] @ SLINGER Stingers, [-13-]
--------------------------------------------------------------------------------------------------------------
1:30pm, OAKFIELD Oaks, [-17-] @ WEST BEND Benders, [-2-]
--------------------------------------------------------------------------------------------------------------

==============================================================

WEDNESDAY, JUNE 7th, 2017

--------------------------------------------------------------------------------------------------------------
7:30pm, THIENSVILLE-MEQOUN Twins, [-10-] @ WEST BEND Benders, [-0-]
--------------------------------------------------------------------------------------------------------------

==============================================================

FRIDAY, JUNE 9th, 2017

--------------------------------------------------------------------------------------------------------------
7:30pm, RUBICON Red Sox, [-4-] @ HARTFORD Hawks, [-12-]
--------------------------------------------------------------------------------------------------------------
7:30pm, SAUKVILLE Saints, [-12-] @ PLYMOUTH Flames, [-3-]
--------------------------------------------------------------------------------------------------------------

==============================================================

SUNDAY, JUNE 11th, 2017

--------------------------------------------------------------------------------------------------------------
1:30pm, HUSTISFORD Astros, [-2-] @ CEDERBURG Mercs, [-10-]
--------------------------------------------------------------------------------------------------------------
1:30pm, PLYMOUTH Flames, [-2-] @ HARTFORD Hawks, [-6-]
--------------------------------------------------------------------------------------------------------------
%%%%%%%%%%%%%%%%%%%%%%%%%%%%%%%%%%%%%%%%%%%%%%
-------------------------------------------------------
1:30pm, At Kimanis Park, Kewaskum

(Games: "3-Stars"

#1 - Sam Zarling, (KWA)

#2 - Adam Sarauer, (KWA)

#3 - Mack Miller, (KWA)

-------------------------------------------------------
[BOX SCORE]

BROWNSVILLE 49ers---010-002-000---3-4-1
-
[PITCHING: (IP-H-ER-BB-SO) --- LP-Austin Wagner, [1.1-3-1-2]

Luke Gellings, [1.2-1-0-1-1]

Parker Parrish, [5.0-6-2-6-2]
-
[BATTING: (AB-R-H-RBI) --- Luke Vandeslunt, 4-0-0-0;

James Goodfellow, 3-1-0-0; Jace Unrein, 3-1-1-0;

John Cetnar, 3-1-0-1; Austin Wagner, 4-0-2-1;

Carver Nolan, 3-0-0-0; Coby Peterson, 2-0-0-0;

Parker Parrish, 3-0-0-0; TOTALS: 29-3-4-1;

~@~~~

KEWASKUM A's---110-000-02x---4-10-1
-
[PITCHING: (IP-H-ER-BB-SO) --- WP-Mack Miller, [7.0-3-2-3-7]

Josh Serio, [2.0-1-1-2-2]
-
[BATTING: (AB-R-H-RBI) --- Nick Rosenthal, 3-1-1-1;

Nate Grzybowski, 4-1-1-0; Brad Young, 5-0-1-0;

Adam Sarauer, 5-1-2-2; Randy Finger, 4-0-1-1;

Sam Zarling, 4-1-3-0; Mike Hensel, 2-0-1-0;

Tyler Jeske, 2-0-0-0; Anthony Matic, 4-0-0-0;

Josh Serio, 0-0-0-0; Mack Miller, 0-0-0-0;

TOTALS: 33-4-10-1;

-------------------------------------------------------
%%%%%%%%%%%%%%%%%%%%%%%%%%%%%%%%%%%%%%%%%%%%%%
--------------------------------------------------------------------------------------------------------------
1:30pm, SLINGER Stingers, [-4-] @ OAKFIELD Oaks, [-19-]
--------------------------------------------------------------------------------------------------------------


==============================================================

WEDNESDAY, JUNE 14th, 2017

--------------------------------------------------------------------------------------------------------------
7:30pm CEDERBURG Mercs, [-12-] @ WEST BEND Benders, [-1-]
--------------------------------------------------------------------------------------------------------------
8.00pm, SAUKVILLE Saints, [-10-] @ THIESVILLE-MEQUON Twins, [-9-]
--------------------------------------------------------------------------------------------------------------

==============================================================

FRIDAY, JUNE 16th, 2017

--------------------------------------------------------------------------------------------------------------
7:30pm, PLYMOUTH Flames, [-1-] @ BROWNSVILLE 49ers, [-4-]
--------------------------------------------------------------------------------------------------------------
7:30pm, OAKFIELD Oaks, [-0-] @ HUSTISFORD Astros, [-5-]
--------------------------------------------------------------------------------------------------------------
7:30pm, KEWAUKUM A's, [-6-] @ SLINGER Stingers, [-0-]
--------------------------------------------------------------------------------------------------------------

==============================================================

SATURDAY, JUNE 17th, 2017

--------------------------------------------------------------------------------------------------------------
1:30pm, CEDARBURG Mercs, [-3-] @ RUBICON Red Sox, [-1-]
--------------------------------------------------------------------------------------------------------------

==============================================================

SUNDAY, JUNE 18th, 2017 --- "Father's Day"

--------------------------------------------------------------------------------------------------------------
1:30pm, KEWASKUM A's, [-3-] @ CEDERBURG Mercs, [-11-]
--------------------------------------------------------------------------------------------------------------
%%%%%%%%%%%%%%%%%%%%%%%%%%%%%%%%%%%%%%%%%%%%%%
-------------------------------------------------------
1:30pm, (10in)

(Games: "3-Stars"

#1 - Jami Kaul, (HFA)

#2 - Andrew Nemmers, (HFA)

#3 - Greg Krahn, (PMF)

-------------------------------------------------------
[BOX SCORE]

PLYMOUTH Flames---100-050-000-1---7-10-2
-
[PITCHING: (IP-H-ER-BB-SO) --- LP-Derek Hall, [2.2-5-4-0-1]

Zac Cain, [7.0-7-3-1-3]
-
[BATTING: (AB-R-H-RBI) --- Greg Krahn, 5-1-2-2;

Derek Hall, 4-0-1-0; Greg Rhude, 5-1-1-1+HR;

Zac Cain, 3-1-1-0; Matt Rhude, 4-0-0-1;

Mike Daly-Torrez, 5-2-2-1; Austin Monk, 5-0-0-0;

Nick Wilson, 5-1-1-1; Eric Heidenreiter, 5-1-2-1;

Ryan Schmitt, 0-0-0-0; TOTALS: 41-7-10-2;

~@~~~

HUSTISFORD Astros---000-002-202-2---8-12-2
-
[PITCHING: (IP-H-ER-BB-SO) --- WP-David Rosscr, [4.2-3-0-1-4]

Andrew Nemmers, [4.1-2-1-3-4]

Derek Pieper, [1.0-5-5-0-1]
-
[BATTING: (AB-R-H-RBI) --- Aaron Roescler, 6-0-3-1;

John Ellenberecl, 4-3-2-0; Jami Kaul, 5-2-2-3;

Andrew Nemmers, 4-0-1-2; Derek Pieper, 4-0-1-0;

Tanner Galleazzi, 5-1-2-1; Warren Braunschweig, 2-0-0-0;

Tim Tallman, 1-0-0-0; Alex Braunschweig, 0-1-0-0;

Hunter Nehls, 2-0-0-0; Danny Henner, 1-0-0-0;

Sam Roescler, 4-1-1-1; David Rosser, 0-0-0-0;

TOTALS: 38-8-12-2;

-------------------------------------------------------
%%%%%%%%%%%%%%%%%%%%%%%%%%%%%%%%%%%%%%%%%%%%%%
--------------------------------------------------------------------------------------------------------------
1:30pm, SLINGER Stingers, [-4-] @ RUBICON Red Sox, [-8-]
--------------------------------------------------------------------------------------------------------------
1:30pm, BROWNSVILLE 49ers, [-6-] @ SAUKVILLE Saints, [-5-]
--------------------------------------------------------------------------------------------------------------
1:30pm, OAKFIELD Oaks, [-2-] @ THIENSVILLE-MEQUON Twins, [-7-]
--------------------------------------------------------------------------------------------------------------

==============================================================

FRIDAY, JUNE 23rd, 2017

--------------------------------------------------------------------------------------------------------------
7:30pm, THIENSVILLE-MEQOUN Twins, [-1-] @ HARTFORD Hawks, [-11-]
--------------------------------------------------------------------------------------------------------------

==============================================================

SUNDAY, JUNE 25th, 2017

--------------------------------------------------------------------------------------------------------------
1:30pm, CEDERBURG Mercs, [-6-] @ OAKFIELD Oaks, [-9-]
--------------------------------------------------------------------------------------------------------------
%%%%%%%%%%%%%%%%%%%%%%%%%%%%%%%%%%%%%%%%%%%%%%
-------------------------------------------------------
1:30pm,

(Games: "3-Stars"

#1 - Chris Rowoldt, (RRX)

#2 - Greg Rhude, (PMF)

#3 - Nick Wilson, (PMF)

-------------------------------------------------------
[BOX SCORE]

RUBICON Red Sox---010-053-010---10-12-1
-
[PITCHING: (IP-H-ER-BB-SO) --- LP-Alex Brewer, [1.1-4-1-1-0]

Chris Rowoldt, [6.2-12-9-1-6]
-
[BATTING: (AB-R-H-RBI) --- Grant Kosanke, 5-2-1-0;

Alex Brewer, 4-1-2-0; Chris Rowoldt, 5-1-2-4;

Kam Koplitz, 4-1-1-1; Tanner Smith, 5-1-2-3;

Justin Martin, 5-0-1-0; Zach Braun, 2-0-0-0;

Brad (RUB) Frank, 2-0-0-0; Corey Leisner, 4-1-2-1;

Nick Casper, 2-3-1-0; TOTALS: 38-10-12-1;

~@~~~

PLYMOUTH Flames---020-120-51x---11-16-1
-
[PITCHING: (IP-H-ER-BB-SO) --- WP-Derek Hall, [4.0-5-4-2-2]

Zac Cain, [5.0-7-6-1-3]
-
[BATTING: (AB-R-H-RBI) --- Greg Krahn, 5-2-2-0;

Derek Hall, 5-1-1-0; Greg Rhude, 5-2-4-3;

Zac Cain, 4-1-1-1; Matt Rhude, 4-3-3-0;

Ryan Wachter, 4-0-1-1; Nick Wilson, 4-2-2-3;

Ryan Schmitt, 3-0-1-1; Connor O'Dwanny, 2-0-0-0;

Austin Mork, 2-0-1-1; TOTALS: 38-11-16-1;

-------------------------------------------------------
%%%%%%%%%%%%%%%%%%%%%%%%%%%%%%%%%%%%%%%%%%%%%%
--------------------------------------------------------------------------------------------------------------
1:30pm, HUSTISFORD Astros, [-4-] @ SAUKVILLE Saints, [-2-]
--------------------------------------------------------------------------------------------------------------
1:30pm, SLINGER Stingers, [-17-] @ WEST BEND Bernders, [-2-]
--------------------------------------------------------------------------------------------------------------

==============================================================

WEDNESDAY, JUNE 28th, 2017

--------------------------------------------------------------------------------------------------------------
7:30pm, WEST BEND Benders, [-1-[ @ BROWNSVILLE 49ers, [-11-]
--------------------------------------------------------------------------------------------------------------

==============================================================

FRIDAY, JUNE 30th, 2017

--------------------------------------------------------------------------------------------------------------
7:30pm, OAKFIELD Oaks, [-6-] @ HARTFORD Hawks, [-9-]
--------------------------------------------------------------------------------------------------------------
7:30pm, KEWASKUM A's, [-1-] @ PLYMOUTH Flames, [-13-]
--------------------------------------------------------------------------------------------------------------

==============================================================

SATURDAY, JULY 1st, 2017

--------------------------------------------------------------------------------------------------------------
1:30pm, HUSTISFORD Astros, [-6-] @ RUBICON Red Sox, [-2-]
--------------------------------------------------------------------------------------------------------------

==============================================================

TUESDAY, JULY 4th, 2017 --- "Number, 241"

--------------------------------------------------------------------------------------------------------------
3:00pm, THIENSVILLE-MEQOUN Twins, [-4-] @ CEDARBURG Mercs, [-5-]
--------------------------------------------------------------------------------------------------------------

==============================================================

WEDNESDAY, JULY 5th, 2017

--------------------------------------------------------------------------------------------------------------
7;30pm, PLYMOUTH Flames, [-22-] @ WEST BEND Benders, [-0-]
--------------------------------------------------------------------------------------------------------------

==============================================================

FRIDAY, JULY 7th, 2017

--------------------------------------------------------------------------------------------------------------
7:30pm, BROWNSVILLE 49ers, [-7-] @ HARTFORD Hawks, [-2-]
--------------------------------------------------------------------------------------------------------------
8:00pm, HUSTISFORD Astros, [-3-] @ THIENSVILLE-MEQOUN Twins, [-7-]
--------------------------------------------------------------------------------------------------------------

==============================================================

SATURDAY, JULY 8th, 2017

--------------------------------------------------------------------------------------------------------------
%%%%%%%%%%%%%%%%%%%%%%%%%%%%%%%%%%%%%%%%%%%%%%
-------------------------------------------------------
1:30pm,

(Games: "3-Stars"

#1 - Kam Koplitz, (RRX)

#2 - Jack Hafemann, (SLS)

#3 - Austin Massey, (SLS)

-------------------------------------------------------
[BOX SCORE]

RUBICON Red Sox---004-000-203---9-15-1
-
[PITCHING: (IP-H-ER-BB-SO) --- WP-Charlie Peterson, [3.1-4-0-2-4]

Nick Casper, [5.2-5-2-6]
-
[BATTING: (AB-R-H-RBI) --- Grant Kosanke, 5-2-3-0;

Chris Rowoldt, 5-1-1-1; Alex Brewer, 5-2-2-1;

Kam Koplitz, 5-2-3-4; Robbie Dombrowski, 4-0-0-1;

Tanner Smith, 5-1-1-1; Mason Weidmeyer, 5-0-1-1;

Justin Martin, 4-0-0-0; Christian McElvey, 4-1-2-0;

Nick Casper, 0-0-0-0; Charlie Peterson, 0-0-0-0;

TOTALS: 42-9-13-1;

~@~~~

SLINGER Stingers---201-004-001---8-12-1
-
[PITCHING: (IP-H-ER-BB-SO) --- LP-Austin Massey, [8.2-14-8-1-5]

Derek Merkes, [0.1-1-0-0-1]
-
[BATTING: (AB-R-H-RBI) --- Cade Geldreish, 6-2-4-0;

Derek Merkes, 5-1-1-0; Griffin Listzue, 4-2-1-1;

Max Merkes, 5-1-1-1; Jack Hafemann, 4-1-3-3;

Brenden Seaver, 4-0-0-0; Pete Rinzel, 4-1-0-0;

Alex Gress, 4-0-0-0; James Matheson, 1-0-0-0;

Gavin Marlow, 4-0-2-0; Austin Massey, 0-0-0-0;

TOTALS: 41-8-12-1;

-------------------------------------------------------
%%%%%%%%%%%%%%%%%%%%%%%%%%%%%%%%%%%%%%%%%%%%%%
--------------------------------------------------------------------------------------------------------------

==============================================================

SUNDAY, JULY 9th, 2017

--------------------------------------------------------------------------------------------------------------
1:30pm, PLYMOUTH Flames, [-2-] @ CEDERBURG Mercs, [-12-]
--------------------------------------------------------------------------------------------------------------
1:30pm, SAUKVILLE Saints, [-3-] @ KEWASKUM A's, [-5-]
--------------------------------------------------------------------------------------------------------------
1:30pm, HARTFORD Hawks, [-8-] @ RUBICON Red Sox, [-7-]
--------------------------------------------------------------------------------------------------------------
%%%%%%%%%%%%%%%%%%%%%%%%%%%%%%%%%%%%%%%%%%%%%%
-------------------------------------------------------
1:30pm,

(Games: "3-Stars"

#1 - Ian Zahn, (OFO)

#2 - Adam Ryan, (OFO)

#3 - Cade Geldreich, (SLS)

-------------------------------------------------------
[BOX SCORE]

OAKFIELD Oaks---200-020-202-3---11-16-0
-
[PITCHING: (IP-H-ER-BB-SO) --- WP-Ian Zahn, [3.0-4-2-0-0]

Keegan Madigan, [7.0-8-6-6-4]
-
[BATTING: (AB-R-H-RBI) --- Keegan Madigan, 6-3-3-0;

Mike Merk, 5-4-3-0; Adam Ryan, 5-3-3-5+HR;

Chris Immel, 3-0-2-2; Craig Schneider, 5-0-2-2;

Matt Shafer, 5-0-0-1; Ian Zahn, 4-0-1-1;

Adam Roscaun, 1-0-1-0; Cowan Mulder, 5-1-1-0;

TOTALS: 39-11-16-0;

~@~~~

SLINGER Stingers---200-400-020-0---8-12-0
-
[PITCHING: (IP-H-ER-BB-SO) --- LP-Derek Merkes, [2.2-2-3-8-2]

Austin Massey, [8.1-12-9-0-5]
-
[BATTING: (AB-R-H-RBI) --- Cade Geldreich, 4-2-3-2;

Nate Shirley, 3-1-0-0; Max Meres, 5-0-2-2;

Griffin Lietzau, 5-0-1-1; Jack Hafemann, 4-1-1-0;

Derek Sabin, 5-1-2-1; Jon Rauh, 4-1-0-0;

James Mathenson, 3-1-2-1; Austin Massey, 0-0-0-0;

TOTALS: 37-8-12-0;

-------------------------------------------------------
%%%%%%%%%%%%%%%%%%%%%%%%%%%%%%%%%%%%%%%%%%%%%%
--------------------------------------------------------------------------------------------------------------

==============================================================

FRIDAY, JULY 14th, 2017

--------------------------------------------------------------------------------------------------------------
7:30pm, CEDADBURG Mercs, [-ppd-] @ BROWNSVILLE 49ers, [-ppd-]
--------------------------------------------------------------------------------------------------------------

==============================================================

SATURDAY, JULY 15th, 2017

--------------------------------------------------------------------------------------------------------------
%%%%%%%%%%%%%%%%%%%%%%%%%%%%%%%%%%%%%%%%%%%%%%
-------------------------------------------------------
1:30pm,

(Games: "3-Stars"

#1 - Casey Johnson, (SVS)

#2 - Daniel Dickmann, (SVS)

#3 - Scott Sabin, (SLS)

-------------------------------------------------------
[BOX SCORE]

SLINGER Stingers---000-100-000---1-5-3
-
[PITCHING: (IP-H-ER-BB-SO) --- LP-Gavin Marlow, [7.0-10-4-6-1]

Alex Gress, [1.0-4-3-0-0]
-
[BATTING: (AB-R-H-RBI) --- Cade Geldreich, 3-0-0-0;

Nate Shirley, 4-0-0-0; Derek Merkes, 4-0-2-0;

Jack Hafemann, 3-0-0-0; Brendan Seaver, 3-1-2-0;

Alex Gress, 3-0-0-0; Scott Sabin, 4-0-1-1;

Gavin Marlow, 3-0-0-0; Dan Sabin, 0-0-0-0;

~@~~~

SAUKVILLE Saints---003-200-34x---11-14-0
-
[PITCHING: (IP-H-ER-BB-SO) --- WP-Casey Johnson, [9.0-5-1-3-3]
-
[BATTING: (AB-R-H-RBI) --- Steve Dickmann, 4-1-0-0;

Cole Granrath, 2-3-1-0; Ian Tucker, 4-0-0-0;

Casey Johnson, 5-4-4-4; Joe Eigenberger, 5-2-4-0;

Mike Pruefer, 5-1-0-1; Daniel Dickmann, 5-0-2-3;

Aaron Brockman, 5-0-2-1; Tom Dickmann, 3-0-1-1;

TOTALS: 38-11-14-0;

-------------------------------------------------------
%%%%%%%%%%%%%%%%%%%%%%%%%%%%%%%%%%%%%%%%%%%%%%
--------------------------------------------------------------------------------------------------------------

==============================================================

SUNDAY, JULY 16th, 2017

--------------------------------------------------------------------------------------------------------------
1:30pm, OAKFIELD Oaks, [-10-] @ BROWNSVILLE 49ers, [-11-]
--------------------------------------------------------------------------------------------------------------
1:30pm, WEST BEND Benders, [-1-] @ CEDERBURG Mercs, [-12-]
--------------------------------------------------------------------------------------------------------------
1:30pm, THIENSVILLE-MEQUON Twins, [-9-] @ SAUKVILLE Saints, [-10-]
--------------------------------------------------------------------------------------------------------------

==============================================================

WEDNESDAY, JULY 19th, 2017

--------------------------------------------------------------------------------------------------------------
8:00pm, KEWASKUM A's. [-9-] @ THIENSVILLE-MEQUON Twins, [-8-]
-------------------------------------------------------
--------------------------------------------------------------------------------------------------------------

==============================================================

SATURDAY, JULY 22nd, 2017

--------------------------------------------------------------------------------------------------------------
1:30pm, THIENSVILLE-MEQUON Twins, [-1-] @ RUBICON Red Sox, [-5-]
--------------------------------------------------------------------------------------------------------------

==============================================================

SUNDAY, JULY 23rd, 2017

--------------------------------------------------------------------------------------------------------------
1:30pm, HARTFORD Hawks, [-6-] @ CEDERBURG Mercs, [-8-]
--------------------------------------------------------------------------------------------------------------
1:30pm, BROWNSVILLE 49ers, [-7-] @ HUSTISFORD Astros, [-10-]
--------------------------------------------------------------------------------------------------------------
1:30pm, RUBICON Red Sox, [-6-] @ KEWASKUM A's, [-8-]
--------------------------------------------------------------------------------------------------------------
1:30pm, PLYMOUTH Flames, [-4-] @ SAUKVILLE Saints, [-1-]
--------------------------------------------------------------------------------------------------------------

==============================================================

TUESDAY, JULY 25th, 2017

--------------------------------------------------------------------------------------------------------------
7:30pm, CEDARBURG Mercs, [-10-] @ WEST BEND Benders, [-0-]
--------------------------------------------------------------------------------------------------------------

==============================================================

FRIDAY, JULY 28th, 2017

--------------------------------------------------------------------------------------------------------------
7:30pm, HARTFORD Hawks, [-19-] @ SLINGER Stingers, [-6-]
--------------------------------------------------------------------------------------------------------------

==============================================================

SATURDAY, JULY 29th, 2017

--------------------------------------------------------------------------------------------------------------
1:30pm, HUSTISFORD Astros, [-15-] @ OAKFIELD Oaks, [-4-]

"Four Score and Seven years ago game."
--------------------------------------------------------------------------------------------------------------
1:30pm, SAUKVILLE Saints, [-26-] @ WEST BEND Benders, [-1-]
--------------------------------------------------------------------------------------------------------------
1:30pm, PLYMOUTH Flames, [-5-] @ KEWASKUM A's, [-0-]
--------------------------------------------------------------------------------------------------------------

==============================================================

SUNDAY, JULY 30th, 2017

--------------------------------------------------------------------------------------------------------------
1:30pm, HUSTISFORD Astros, [-14-] @ SLINGER Stingers, [-2-]
--------------------------------------------------------------------------------------------------------------
1:30pm, CEDARBURG Mercs, [-0-] @ KEWASKUM A's, [-3-]
--------------------------------------------------------------------------------------------------------------
1:30pm, SAUKVILLE Saints, [-0-] @ OAKFIELD Oaks, [-3-]
--------------------------------------------------------------------------------------------------------------
1:30pm, THIENSVILLE-MEQUON Twins, [-2-] @ PLYMOUTH Flames, [-13-]
--------------------------------------------------------------------------------------------------------------
1:30pm, BROWNSVILLE 49ers, [-1-] @ RUBICON Red Sox, [-2-]
--------------------------------------------------------------------------------------------------------------
%%%%%%%%%%%%%%%%%%%%%%%%%%%%%%%%%%%%%%%%%%%%%%
-------------------------------------------------------
1:30pm, At Carl Kuss Field, West Bend

Games: "3-Stars"

#1 - Griffin Lukes, (HFH)

#2 - Drew Palmer, (HFH)

#3 - Joe Seegers, (HFH)

-------------------------------------------------------
[BOX SCORE]
-
HARTFORD Hawks---820-120-0---13-13-2
-
[PITCHING: (IP-H-ER-BB-SO) --- WP-Matt Finley, [4.0-2-0-1-9]

Zach Christopherson, [3.0-6-1-0-4]
-
[BATTING: (AB-R-H-RBI) --- Joe Seegers, 5-2-3-2;

Jordan Stephans, 2-2-1-2; Brody Marks, 1-0-0-0;

Drew Palmer, 3-1-2-2+HR; Matt Finley, 2-0-0-1;

Zach Christopherson, 4-2-1-0; Tom Kluck, 2-1-1-0;

Jim Kluck, 2-1-0-0; Parker Plume, 3-1-2-1;

Griffin Lukes, 4-1-3-2; Aaron Stephans, 1-1-0-2;

Bryce Patin, 3-1-0-0; TOTALS: 32-13-13-2;

~@~~~

WEST BEND Benders---200-010-0---3-8-1
-
[PITCHING: (IP-H-ER-BB-SO) --- LP-Simon Heller, [5.0-12-13-3-1]

Joey Pettit, [2.0-1-0-0-4]
-
[BATTING: (AB-R-H-RBI) --- Tristan DeBow, 4-2-2-0;

Simon Heller, 4-1-2-0; Eric Van Treeks, 4-0-1-0;

Joey Pettit, 3-0-2-1; Kevin Kasten, 3-0-0-1;

Mike Pettit, 2-0-0-0; Jake Schladweiler, 3-0-0-0;

Brett Natale, 3-0-0-0; Mike Zwieg, 3-0-1-0;

Harry Lin, 0-0-0-0; TOTALS: 29-3-8-1;

-------------------------------------------------------
%%%%%%%%%%%%%%%%%%%%%%%%%%%%%%%%%%%%%%%%%%%%%%
--------------------------------------------------------------------------------------------------------------

===============================
===============================

MONDAY, JULY 31st, 2017

--------------------------------------------------------------------------------------------------------------
7:30pm, CEDARBURG Mercs, [-0-] @ BROWNSVILLE 49er's, [-2-]
--------------------------------------------------------------------------------------------------------------

==============================================================

TUESDAY, AUGUST 1st, 2017

--------------------------------------------------------------------------------------------------------------
%%%%%%%%%%%%%%%%%%%%%%%%%%%%%%%%%%%%%%%%%%%%%%
-------------------------------------------------------
7:30pm, At West Side Field,

(Games: "3-Stars"

#1 - Jim Ziegler, (KWA)

#2 - Adam Sarauer, (KWA)

#3 - Cale Klink, (HFH)

-------------------------------------------------------
[BOX SCORE]
-
KEWASKUM A's---000-000-620---8-8-0
-
[PITCHING: (IP-H-ER-BB-SO) --- WP-Austin Cairo, [5.0-6-1-4-3]

Grant Steinke, [4.0-5-4-5-4]
-
[BATTING: (AB-R-H-RBI) --- Nick Roseenthal, 4-1-1-0;

Mike Hensel, 5-1-1-0; Brad Young, 3-2-1-0;

Adam Sarauer, 2-0-2-3; Randy Finger, 5-1-1-2;

Mike Prochnow, 4-1-0-0; Jim Ziegler, 3-0-1-3;

Turner Wagie, 4-1-0-0; Grant Steinike, 3-1-1-0;

Austin Cairo, 0-0-0-0; TOTALS: 33-8-8-0;
-
~@~~~
-
HARTFORD Hawks---010-310-000---5-13-1
-
[PITCHING: (IP-H-ER-BB-SO) --- LP-Zach Christopherson, [2.0-6-4-2-2]

Matt Buhrow, [5.0-1-0-7-4]

Joe Seegers, [2.0-1-1-0-1]
-
[BATTING: (AB-R-H-RBI) --- Joe Seegers, 4-0-2-1;

Jordan Stephans, 4-0-1-1; Drew Palmer, 4-0-0-0;

Zach Christopherson, 4-0-1-0; Tom Kluck, 4-0-1-0;

Bryce Patin, 4-1-2-0; Brent Williams, 3-2-1-0;

Cale Klink, 2-2-1-2; Taylor Renzaglia, 3-0-2-1;

Griffin Lukes, 1-0-0-0; Parker Plume, 1-0-0-0;

Matt Buhrow, 0-0-0-0; TOTALS: 34-5-11-1;
-
-------------------------------------------------------
%%%%%%%%%%%%%%%%%%%%%%%%%%%%%%%%%%%%%%%%%%%%%%

==============================================================

WEDNESDAY, AUGUST 2nd, 2017

--------------------------------------------------------------------------------------------------------------
8:00pm, WEST BEND Benders, [-0-] @ THIESVILLE-MEQUON Twins, [-10-]
--------------------------------------------------------------------------------------------------------------

==============================================================

FRIDAY, AUGUST 4th, 2017

--------------------------------------------------------------------------------------------------------------
7:30pm, SLINGER Stingers, [-3-] @ BROWNSVILLE 49ers, [-7-]
--------------------------------------------------------------------------------------------------------------
7:30pm, HUSTISFORD Astros, [-5-] @ HARTFORD Hawks, [-4-]
--------------------------------------------------------------------------------------------------------------
7:30pm, SAUKVILLE Saints, [-8-] @ THIENSVILLE-MEQUON Twins, [-6-]
--------------------------------------------------------------------------------------------------------------

==============================================================

SATURDAY, AUGUST 5th, 2017

--------------------------------------------------------------------------------------------------------------
%%%%%%%%%%%%%%%%%%%%%%%%%%%%%%%%%%%%%%%%%%%%%%
-------------------------------------------------------
3:00pm, At Behling Field,

Games: 3-Stars"

#1 - Mike Pruefer, (SVS)

#2 - Ian Tucker, (SVS)

#3 - Max Pruefer, (SVS)

-------------------------------------------------------
[BOX SCORE]

SAUKVILLE---000-330-010---7-14-5
-
[PITCHING: (IP-H-ER-BB-SO) --- WP-Aaron Blookman, [9.0-6-4-8-6]
-
[BATTING: (AB-R-H-RBI) --- Steve Dickmann, 5-0-0-0;

Max Pruefer, 6-3-3-0; Ian Tucker, 4-2-3-1;

Mike Pruefer, 2-2-1-3; Joe Eigenberger, 5-0-2-0;

Aaron Brookman, 5-0-0-0; Paul Duhr, 5-0-1-1;

Daniel Dickmann, 5-0-2-0; Mike Mueller, 5-0-2-0;

TOTALS: 42-7-14-5;

~@~~~

CEDERBURG Mercs---013-000-002---6-6-1
-
[PITCHING: (IP-H-ER-BB-SO) --- LP-Joe Daniels, [7.0-11-6-3-8]

Nolan Gilbertson, [2.0-3-1-1-1]
-
[BATTING: (AB-R-H-RBI) --- Brian "Birdie" Bert, 2-0-1-1;

Matt Woelky, 5-0-0-0; Nolan Gilbertson, 3-1-0-0;

Joe Reichhart, 4-2-2-0; Nick Boehnlein, 4-1-1-0;

Mike Woelky, 5-1-1-4+HR; Troy White, 4-1-1-0;

Joe Daniels, 4-0-0-1; Chritstian Kadrich, 5-0-0-0;

TOTALS: 36-6-6-1;

-------------------------------------------------------
%%%%%%%%%%%%%%%%%%%%%%%%%%%%%%%%%%%%%%%%%%%%%%
--------------------------------------------------------------------------------------------------------------

==============================================================

SUNDAY, AUGUST 6th, 2017

-------------------------------------------------------
%%%%%%%%%%%%%%%%%%%%%%%%%%%%%%%%%%%%%%%%%%%%%%
-------------------------------------------------------
1:30pm, At Village Park, Oakfield

(Games: "3-Stars"

#1 - Chris Immel, (OFO)

#2 - Chris Rowoldt, (RRX)

#3 - Mason Weidmeyer, (RRX)

-------------------------------------------------------
[BOX SCORE]

RUBICON Red Sox---010-007-000---8-12-0
-
[PITCHING: (IP-H-ER-BB-SO) --- WP-Justin Martin, [7.0-9-5-4-2]

Brian Wilson, [2.0-1-0-2-3]
-
[BATTING: (AB-R-H-RBI) --- Jason Abatto, 4-1-2-2;

Alex Brewer, 3-1-0-0; Chris Rowoldt, 4-1-1-3;

Kam Koplitz, 4-1-3-1; Tanner Smith, 5-1-1-0;

Mason Weidmeyer, 5-1-3-0; Christian McElvey, 4-1-2-1;

Miles Zindars, 3-0-0-1; Justin Martin, 3-1-0-1;

Brain Wilson, 0-0-0-0; TOTALS: 35-8-12-0;

~@~~~

OAKFIELD Oaks---100-020-200---5-10-0
-
[PITCHING: (IP-H-ER-BB-SO) --- LP-Ian Zahn, [6.0-9-8-5-4]

Adam Ryan, [3.0-3-0-1-2]
-
[BATTING: (AB-H-R-RBI) --- Keegan Madigan, 4-0-0-0;

Mike Merk, 4-0-2-1+HR; Adam Ryan, 5-1-1-0;

Chris Immel, 5-1-3-3+HR; Craig Schneider, 3-1-0-0;

Matt Shafer, 4-0-2-1; Ian Zahn, 4-0-0-0;

Adam Rosenau, 4-0-2-0; Cowan Mulder, 4-0-0-0;

TOTALS: 37-3-10-0;

-------------------------------------------------------
%%%%%%%%%%%%%%%%%%%%%%%%%%%%%%%%%%%%%%%%%%%%%%
--------------------------------------------------------------------------------------------------------------
1:30pm, THINESVILLE-MEQUON Twins, [-13-] @ CEDARBURG Mercs, [-2-]
--------------------------------------------------------------------------------------------------------------
1:30pm, HUSTSFORD Astros, [-5-] @ BROWNSVILLE 49ers, [-4-]
--------------------------------------------------------------------------------------------------------------

___________________

End of Regular Season
___________________


==============================================================

2017, ROCK RIVER "Northern Division" Playoffs

--------------------------------------------------------------------------------------------------------------

WEDNESDAY, AUGUST 9th, 2017

--------------------------------------------------------------------------------------------------------------
7:30pm, PLYMOUTH Flames, [-1-] vs KEWASKUM A's, [-3-] --- (Plymouth, Eliminated)
--------------------------------------------------------------------------------------------------------------
7:30pm, BROWNSVILLE 49er's, [-0-] @ HARTFORD Hawks, [-1-] --- (Brownsville, Eliminated)
--------------------------------------------------------------------------------------------------------------

==============================================================

SATURDAY, AUGUST 12th, 2017

--------------------------------------------------------------------------------------------------------------
1:30pm, KEWASKUM A's, [-7-] @ CEDARBURG Mercs, [-4-]
--------------------------------------------------------------------------------------------------------------
1:30pm, HARTFORD Hawks, [-6-] @ HUSTISFORD Astros, [-8-]
--------------------------------------------------------------------------------------------------------------

==============================================================

SUNDAY, AUGUST 13th, 2017

--------------------------------------------------------------------------------------------------------------
1:30pm, KEWASKUM A's, [-3-] @ HUSTISFORD Astros, [-14-]
--------------------------------------------------------------------------------------------------------------
1:30pm, HARTFORD Hawks, [-14-] @ CEDARBURG Mercs [-7-] ---

(Eliminated, Cedarburg)
--------------------------------------------------------------------------------------------------------------

==============================================================

SATURDAY, AUGUST 19th, 2017

--------------------------------------------------------------------------------------------------------------
1:30pm, HARTFORD Hawks, [-11-] @ KEWASKUM A's, [-12-]

(HARTFORD, Eliminated)
--------------------------------------------------------------------------------------------------------------

==============================================================

SUNDAY, AUGUST 20th, 2017

--------------------------------------------------------------------------------------------------------------
1:30pm, KEWASKUM, [-5-] @ HUSTISFORD Astros, [-3-] --- (10in)
--------------------------------------------------------------------------------------------------------------

==============================================================

SATURDAY, AUGUST 26th, 2017

--------------------------------------------------------------------------------------------------------------
1:30pm, HUSTISFORD Astros, [-5-] @ KEWASKUM A's, [-4-]

(Kewaskum, Eliminated)
--------------------------------------------------------------------------------------------------------------

==============================================================

SUNDAY, AUGUST 27th, 2017

--------------------------------------------------------------------------------------------------------------
1:30pm, Game 1,
-
CLYMAN Canners, [-1-]

~@~~~

HUSTISFORD Astros, [-4-]
--------------------------------------------------------------------------------------------------------------

==============================================================

SATURDAY, SEPTEMBER 2nd, 2017

--------------------------------------------------------------------------------------------------------------
1:30pm, Game 2,
-
HUSTISFORD Astros, [--]

~@~~~

CLYMAN Canners, [--]
--------------------------------------------------------------------------------------------------------------

==============================================================

SUNDAY, SEPTEMBER, 3rd, 2017

--------------------------------------------------------------------------------------------------------------
1:30pm, Game 3, --- (If Necessary)
-
CLYMAN Canners, [--]

~@~~~

HUSTISFORD Astros, [--]
--------------------------------------------------------------------------------------------------------------

--------------------------------------------------------------------------------------------------------------


-------------------------------------------------------------------------------------------------------------
==============================================================
_______________
"HISTORY"

2016, ROCK RIVER, NORTHERN Divison, "Final" Standings
_______________
NORTHEAST Division

------W--L---.PCT----TEAMS
------14---5---.737-----PLYMOUTH Flames
------13---6---.684-----KEWASKUM A's
------11---8---.579-----CEDERBURG Mercs
-------9--10---.474-----THIENSVILLE-MEQUON Twins
-------5--13---.278-----SAUKVILLE Saints
-------5--14---.263-----GRAFTON Express
-------0--18---.000-----WEST BEND Benders
_______________
NORTHWEST Division

------W--L---.PCT----TEAMS
-----16---3---.842------HARTFORD Hawks
-----15---4---.789------HUSTISFORD Astros
-----12---7---.632------BROWNSVILLE 49ers
-----10---9---.526------OAKFIELD Oaks
-----10---9---.526------RUBICON Red Sox
------9--10---.474------JUNEAU County Seaters
------3--16---.158------SLINGER Stingers

==============================================================

Venue Information and Directions