Last Updated: October 14, 2017

Back to Previous Page

HOME TALENT BASEBALL LEAGUE, Eastern
Date(s):   5/1/2015 - 9/1/2015
Contact Info:

General Information
.
==============================================================

2017

HOME TALENT BASEBALL LEAGUE, "Eastern" Section

==============================================================

HOME TALENT BASEBALL LEAGUE,

EASTERN Section,

--------------------------------------------------------------------------------------------------------------

1929 ~ 2017

==============================================================

-------------------------------------------------------
(Last Updated: September 24th, 2017)
-------------------------------------------------------

==============================================================

2017, HOME TALENT BASEBALL LEAGUE,

EASTERN Section, "FINAL" Standings

--------------------------------------------------------------------------------------------------------------

------W--L---.PCT----TEAMS
------14---4---.778-----COTTAGE GROVE Firemen
------13---4---.765-----MONTELLO Granite Jaxx
------13---5---.722-----PORTAGE Skeeters
------11---6---.647-----MONONA Braves
------10---8---.556-----DeFOREST Deacons
------10---8---.556-----SUN PRAIRIE "Sun Dawgs"
------10---8---.556-----POYNETTE Indians
-------4--14---.222-----MARSHALL Firemen
-------4--14---.222-----RIO Railmen
-------0--18---.000-----COLUMBUS Crawdads

[18 Game Season]

--------------------------------------------------------------------------------------------------------------

2017, "Firth & FINAL" Edition" of the "SWEET

SIXTEEN" Power Ratings.

WEDNESDAY, SEPTEMBER 20th, 2017

(League Games Only) and (Playoff Games)

--------------------------------------------------------------------------------------------------------------
%%%%%%%%%%%%%%%%%%%%%%%%%%%%%%%%%%%%%%%%%%%%%%

EASTERN "PLAYOFF ARE AT THE BOTTUM

%%%%%%%%%%%%%%%%%%%%%%%%%%%%%%%%%%%%%%%%%%%%%%

==============================================================

2017, SCHEDULE & RESULTS

--------------------------------------------------------------------------------------------------------------


==============================================================

SUNDAY, APRIL 30th, 2017

--------------------------------------------------------------------------------------------------------------
1:00pm, COTTAGE GROVE Firemen, [-ppd-] @ POYNETTE Indians, [-ppd-]
--------------------------------------------------------------------------------------------------------------
1:00pm, DEFOREST Deacons, [-ppd-] @ COLUBUS Crawdads, [-ppd-]
--------------------------------------------------------------------------------------------------------------
1:00pm, PORTAGE Skeeters, [-ppd-] @ MONONA Braves, [-ppd-]
--------------------------------------------------------------------------------------------------------------
1:00pm, RIO Railmen, [-ppd-] @ SUN PRAIRIE Sun Dawgs, [-ppd-]
--------------------------------------------------------------------------------------------------------------
1:00pm, MONTELLO Granite Jaxx, [-ppd-] @ MARSALL Firemen, [-ppd-]
--------------------------------------------------------------------------------------------------------------

==============================================================

SATURDAY, MAY 6th, 2017

--------------------------------------------------------------------------------------------------------------
4:00pm, MARSHALL Firemen, [-0-] @ COTTAGE GROVE, Firemen, [-10-]
--------------------------------------------------------------------------------------------------------------

==============================================================

SUNDAY, MAY 7th, 2017

--------------------------------------------------------------------------------------------------------------
1:00pm, MONONA Braves, [-10-] @ POYNETTE Indians, [-6-]
--------------------------------------------------------------------------------------------------------------
1:00pm, DeFOREST Deacons, [-6-] @ PORTAGE Skeeters, [-7-]
--------------------------------------------------------------------------------------------------------------
1:00pm, MONTELLO Granite Jaxx, [-0-] @ RIO Railmen [-4-]
--------------------------------------------------------------------------------------------------------------

%%%%%%%%%%%%%%%%%%%%%%%%%%%%%%%%%%%%%%%%%%%%%%
-------------------------------------------------------

1:00pm, At Fireman's Park, --- (7in)

{Games: "3-Stars"

#1 - Chainey Brewer, (CBC)

#2 - Randy Molina, (SRB)

#3 - David Diaz, (SRB)

-------------------------------------------------------
[BOX SCORE]
-
SUN PRAIRIE Sun Dawgs---164-417-2---25-31-x
-
[PITCHING: [IP-H-ER-BB-SO) --- WP-Andy Minga, [4.0-8-4-2-3]

Logan Mara, [1.0-0-0-0-2] --- Ryan Roscoe, [2.0-1-1-1-2]
-
[BATTING: (AB-R-H-RBI) --- Andy Minga, 0-0-0-0;

Nick Mallandt, 2-1-0-1; Aaron Schmidt, 6-6-5-2;

Joe Bachmeyer, 4-2-2-1; Pete Fassbender, 4-2-2-2;

Chas Schuster, 2-2-2-0; Justin Kreds, 6-5-3-1;

Logan Mara, 2-1-2-0; Ryan Roscoe, 2-0-1-2;

Brad Johnson, 7-1-4-1; Brian Hoddinott, 4-0-1-2; Adam Ney, 2-0-0-0;

David Diaz, 3-2-2-5; Randy Molina, 7-4-7-8;

TOTALS: 51-25-31-x;

~@~~~

COLUMBUS Crawdads---310-201-0---7-9-x
-
[PITCHING: (IP-H-ER-BB-SO) --- LP-Chainey Brewer, [7.0-31-22-9-8]
-
[BATTING: (AB-R-H-RBI) --- Dillion Manley, 3-0-0-0;

Zack Zeidler, 4-2-2-0; Aaron Kast, 3-1-0-0;

Chainey Brewer, 4-1-2-3; James Cahoon, 4-0-1-1;

Ryan Dauman, 2-3-1-0; Blaine Schmidt, 4-0-2-2;

Zack Klomsten, 4-0-0-0; Craig Sauer, 4-0-1-1;

TOTALS: 32-7-9-x;

-------------------------------------------------------
%%%%%%%%%%%%%%%%%%%%%%%%%%%%%%%%%%%%%%%%%%%%%%

--------------------------------------------------------------------------------------------------------------

==============================================================

SATURDAY, MAY 13th, 2017

--------------------------------------------------------------------------------------------------------------
1:00pm, DeFOREST Deacons, [-8-] @ SUN PRAIRIE Sun Dawgs, [-4-]
-------------------------------------------------------------------------------------------------------------

==============================================================

SUNDAY, MAY 14th, 2017 - "Mother's Day"

--------------------------------------------------------------------------------------------------------------
1:00pm, COTTAGE GROVE Firemen, [-9-] @ RIO Railmen, [-6-]
--------------------------------------------------------------------------------------------------------------
1:00pm, PORTAGE Skeeters, [-7-] @ POYNETTE Indians, [-2-]
--------------------------------------------------------------------------------------------------------------
1:00pm, MARSHALL Firemen, [-0-] @ MONONA Braves, [-9-]
--------------------------------------------------------------------------------------------------------------
1:00pm, COLUMBUS Crawdads, [-0-] @ MONTELLO Granite Jaxx, [-10-]
--------------------------------------------------------------------------------------------------------------

==============================================================

SUNDAY, MAY 21st, 2017

--------------------------------------------------------------------------------------------------------------
1:00pm, DeFOREST Deacons, [-ppd-] @ MARSHALL Firemen, [-ppd-]
--------------------------------------------------------------------------------------------------------------
1:00pm, POYNETTE Indians, [-ppd-] @ SUN PRAIRIE Red Birds, [-ppd-]
--------------------------------------------------------------------------------------------------------------
1:00pm, COTTAGE GROVE Firemen, [-0-] @ PORTAGE Skeeters, [-6-]
--------------------------------------------------------------------------------------------------------------
1:00pm, MONTELLO Granite Jaxx, [-4-] @ MONONA Braves, [-5-]
--------------------------------------------------------------------------------------------------------------
4:00pm, RIO Railmen, [-ppd-] vs COLUMBUS Crawdads, [-ppd-] @ Waterloo
--------------------------------------------------------------------------------------------------------------

==============================================================

SUNDAY, MAY 28th, 2017

--------------------------------------------------------------------------------------------------------------
1:00pm, COLUMBUS Crawdads, [-ppd-] @ COTTAGE GROVE Firemen, [-ppd-]
--------------------------------------------------------------------------------------------------------------
1:00pm, DEFOREST Deacons, [-ppd-] @ MONTELLO Granite Jazz, [-ppd-]
--------------------------------------------------------------------------------------------------------------
1:00pm, POYNETTE Indians, [-6-] @ MARSHALL Firemen, [-4-]
--------------------------------------------------------------------------------------------------------------
%%%%%%%%%%%%%%%%%%%%%%%%%%%%%%%%%%%%%%%%%%%%%%
-------------------------------------------------------
1:00pm,

Games: "3-Stars"

#1 - Adam Walz, (PTS)

#2 - Patrick Audtin, (PTS)

#3 - Aaron Schmidt, (SPS)

-------------------------------------------------------
[BOX SCORE]
-
SUN PRAIRIE Sun Dawgs---101-000-0---2-10-0
-
[PITCHING: (IP-H-ER-BB-SO) -- LP-Ryan Roscoe, [5.1-6-9-6-8]

Aaron Schmidt, [0.2-2-0-1-1]

Jack Maastricht, [0.1-1-1-2-0]
-
[BATTING: (AB-R-H-RBI) --- Drew Hamilton, 3-0-1-0;

Aaron Schmidt, 4-1-3-0; Pete Fassbender, 3-0-1-0;

Justin Krebs, 4-1-0-0; Bradley Calkins, 3-0-1-1;

Marcus Rueter, 0-0-0-0; Jack Maastricht, 3-0-0-0;

Kasey Bass, 3-0-1-0; Brad Johnson, 3-0-2-0;

David Diaz, 1-0-0-0; Randy Molina, 3-0-1-1;

Ryan Roscoe, 0-0-0-0; TOTALS: 30-2-10-0;

~@~~~

PORTAGE Skeeters---000-236-1---12-9-0
-
[PITCHING: (IP-H-ER-BB-SO) --- WP-Colyn Buss, [7.0-10-1-1-2]
-
[BATTING: (AB-R-H-RBI) --- Colyn Buss, 2-2-0-1;

Adam Walz, 3-1-3-4; Mat Lagoda. 3-2-1-1;

Ethan Greene, 3-1-1-0; Brady Greene, 5-0-1-1;

Adam Bortz, 3-3-1-1; Patrick Austin, 4-2-2-2;

Travis Hamilton, 4-0-0-0; Jack Nelson, 2-1-0-0;

TOTALS: 29-12-9-0;

-------------------------------------------------------
%%%%%%%%%%%%%%%%%%%%%%%%%%%%%%%%%%%%%%%%%%%%%%
--------------------------------------------------------------------------------------------------------------
4:00pm MONONA Braves, [-11-] @ RIO Railmen, [-6-]
--------------------------------------------------------------------------------------------------------------

==============================================================

MONDAYY, MAY 29th, 2017

--------------------------------------------------------------------------------------------------------------
1;00pm, MARSHALL Firemen, [-7-] @ RIO Railmen, [-6-]
--------------------------------------------------------------------------------------------------------------
1:00pm, SUN PRAIRIE Sun Dawgs, [-0-] @ COTTAGE GROVE Firemen, [-1-]
--------------------------------------------------------------------------------------------------------------
1:00pm, COLUMBUS Crawdads, [-2-] @ POYNETTE Indians, [-12-]
--------------------------------------------------------------------------------------------------------------
1:00pm, MONONA Braves, [-1-] @ DeFOREST Deacons, [-4-]
--------------------------------------------------------------------------------------------------------------
4:00pm, MONTELLO Granite Jaxx, [-6-] @ PORTAGE Skeeters, [-3-]
--------------------------------------------------------------------------------------------------------------

==============================================================

SATURDAY, JUNE 3rd, 2017

--------------------------------------------------------------------------------------------------------------
12:00pm, MONTELLO Granite Jaxx, [-6-] @ POYNETTE Indians, [-2-]
--------------------------------------------------------------------------------------------------------------
3:00pm, POYNETTE Indians, [-4-] vs MONTELLO Granite Jaxx, [-1-] @ Poynette
--------------------------------------------------------------------------------------------------------------

==============================================================

SUNDAY, JUNE 4th, 2017

-------------------------------------------------------
-------------------------------------------------------
1:00pm, COLUMBUS Crawdads, [-1-] @ PORTAGE Skeeters, [-11-]
--------------------------------------------------------------------------------------------------------------
%%%%%%%%%%%%%%%%%%%%%%%%%%%%%%%%%%%%%%%%%%%%%%
-------------------------------------------------------

1:00pm, At Ashley Field,

{Games: "3-Stars"

#1 - Jack Maastricht, (SRB)

#2 - Jordan Gomez, (MSF)

#3 - Joe Bachmeyer, (SRB)

-------------------------------------------------------
[BOX SCORE]
-
MARSHALL Firemen---112-313-000---11-15-x
-
[PITCHING: (IP-H-ER-BB-SO) --- LP-Jared Wilke, [1.2-3-1-0-1]

Jordan Gomez, [6.0-13-5-3-2] --- Bryce Riege, [0.1-0-1-0]
-
[BATTING: (AB-R-H-RBI) --- Tate Rose, 4-3-2-0; Kigen Mares, 5-1-0-2;

Collin Bergholz, 5-0-0-0; Adam Sillman, 4-1-1-0;

Jordan Gomez, 5-1-4-1; Juan Dominguez, 4-1-1-3;

Jared Wilke, 6-1-2-2; Jake Miller, 4-1-1-0;

Bryce Riege, 1-0-0-0; Sam Schwenn, 5-2-3-1;

TOTALS: 43-11-15-x;

~@~~~

SUN PRAIRIE Sun Dawgs---100-440-12x---12-16-x
-
[PITCHING: (IP-H-ER-BB-SO) --- WP-Marcus Rueter, [2.0-0-1-0]

Bryce Hanson, [3.0-7-2-3-5] --- Aaron Schmidt, [1.0-0-0-1]

Joe Bachmeyer, [0.0-3-3-0-0] --- Ryan Roscoe, [3.0-5-1-3-7]

Kasey Bass, [0.0-0-0-0]
-
[BATTING: (AB-R-H-RBI) --- Bryce Hanson, 1-0-0-0;

Drew Hamilton, 4-0-1-0; Aaron Schmidt, 4-1-2-2;

Joe Bachmeyer, 4-2-3-2; Justin Krebs, 3-3-2-1;

Bradley Calkins, 4-2-1-0; Marcus Rueter, 4-1-3-1;

Jack Maastricht, 5-2-3-4; Ryan Roecoe, 1-0-1-0;

Kasey Bass, 3-0-0-0; Mike Englehart, 1-1-0-1;

David Diaz, 1-0-0-0; Randy Molina, 5-0-0-0;

TOTALS: 40-12-16-x;

-------------------------------------------------------
%%%%%%%%%%%%%%%%%%%%%%%%%%%%%%%%%%%%%%%%%%%%%%
--------------------------------------------------------------------------------------------------------------
1:00pm, RIO Railmen, [-12-] @ DeFOREST Deacons, [-4-]
--------------------------------------------------------------------------------------------------------------
4:00pm, COTTAGE GROVE Firemen, [-6-] @ MONONA Braves, [-2-]
--------------------------------------------------------------------------------------------------------------

==============================================================

SATURDAY, JUNE 10th, 2017

--------------------------------------------------------------------------------------------------------------
1:00pm, MONONA Braves, [--] @ SUN PRAIRIE Sun Dawgs, [--]
--------------------------------------------------------------------------------------------------------------
1:00pm, RIO Railmen, [--] @ PORTAGE Skeeters, [--]
--------------------------------------------------------------------------------------------------------------
1:00pm, MONTELLO Granite Jaxx, [--] @ COTTAGE GROVE Firemen, [--]
--------------------------------------------------------------------------------------------------------------

==============================================================

SUNDAY, JUNE 11th, 2017

--------------------------------------------------------------------------------------------------------------
1:00pm, MONTELLO Granite Jaxx, [--] @ SUN PRAIRIE Sun Dawgs, [--]
--------------------------------------------------------------------------------------------------------------
1:00pm, COTTAGE GROVE Firemen, [--] @ DeFOREST Deacons, [--]
--------------------------------------------------------------------------------------------------------------
1:00pm, POYNETTE Indians, [--] @ RIO Railmen, [--]
--------------------------------------------------------------------------------------------------------------
1:00pm, MONONA Braves, [--] @ COLUMBUS Crawdads, [--]
--------------------------------------------------------------------------------------------------------------
1:00pm, PORTAGE Skeeters, [--] @ PORTAGE Skeeters, [--] @ MARSHALL Firemen, [--]
--------------------------------------------------------------------------------------------------------------

==============================================================

FRIDAY, JUNE 16th, 2017

--------------------------------------------------------------------------------------------------------------
7:30pm, POYNETTE Indians, [-2-] @ MONONA Braves, [-3-]
--------------------------------------------------------------------------------------------------------------

==============================================================

SATURDAY, JUNE 17th, 2017

--------------------------------------------------------------------------------------------------------------
1:00pm, POYNETTE Indians, [-5-] @ DeFOREST Deacons, [-8-]
--------------------------------------------------------------------------------------------------------------

==============================================================

SUNDAY, JUNE 18th, 2017 "FATHER'S DAY"

--------------------------------------------------------------------------------------------------------------
%%%%%%%%%%%%%%%%%%%%%%%%%%%%%%%%%%%%%%%%%%%%%%
-------------------------------------------------------

12:00pm, At DeForest High School Field,

{Games: "3-Stars:

#1 - Kendall Frank, (DFD)

#2 - Brett Vomhof, (DFD)

#3 - Jack Maastricht, (SPD)
-------------------------------------------------------
[BOX SCORE]
-
SUN PRAIRIE Sun Dawgs---100-002-020---5-2-0
-
[PITCHING: (IP-H-ER-BB-SO) --- LP-Andy Minga, [4.2-7-2-1-1]

Joe Bachmeyer, [1.1-4-3-0-1]

Marcus Rueter, [1.0-1-0-4-1] --- Ryan Roscoe, [1.0-0-0-1-2]
-
[BATTING: (AB-R-H-RBI) --- Bryce Hanson, 1-0-0-1;

Aaron Schmidt, 4-3-1-0; Joe Bachmeyer, 0-0-0-1;

Pete Fassbeder, 3-0-0-0; Justin Krebs, 4-0-0-0;

Bradley Calkins, 3-0-0-0; Marcus Rueter, 2-0-0-0;

Jake Maastricht, 3-2-1-0; Kasey Bass, 2-0-0-0;

Brad Johnson, 2-0-0-0; Brian Hoddinott, 1-0-0-0;

David Diaz, 1-0-0-0; Randy Molina, 5-0-0[1;

Ryan Roscoe, 0-0-0-0; TOTALS: 31-5-2-0;

~@~~~

DeFOREST Deacons----010-123-000---7-12-0
-
[PITCHING: (IP-H-ER-BB-SO) --- WP-Brett Vomhof, [7.1-2-3-4-3]

Garret Kertz, [1.0-0-0-2-2]

Taylor Mack, [0.2- 0--0-1-0]
-
[BATTING: (AB-R-H-RBI) --- Bo Tillmon, 4-1-1-1;

Brett Vomhof, 3-1-1-0; Weston Knutson, 4-0-0-0;

Brock Allen, 4-1-2-0; Even Kelley, 5-1-1-0;

Julian Edwards, 3-0-1-1; Even Kohil, 5-0-2-1;

Kendall Frank, 4-1-2-2; Andrew Wasmund, 4-2-2-1;

Garret Kertz, 0-0-0-0; Taylor Mack, 0-0-0-0;

TOTALS: 36-7-12-0;

-------------------------------------------------------
%%%%%%%%%%%%%%%%%%%%%%%%%%%%%%%%%%%%%%%%%%%%%%
--------------------------------------------------------------------------------------------------------------
1:00pm, RIO Railmen, [-2-] @ COTTAGE GROVE Firemen, [-3-]
--------------------------------------------------------------------------------------------------------------
1:00pm, POYNETTE Indians, [-3-] @ PORTAGE Skeeters, [-5-]
--------------------------------------------------------------------------------------------------------------
1:00pm, MONONA Braves, [-?-] @ MARSHALL Firemen, [-?-]
--------------------------------------------------------------------------------------------------------------
4:00pm, MONTELLO Granite Jaxx, [-19-] @ COLUMBUS Crawdads, [-2-]
--------------------------------------------------------------------------------------------------------------

==============================================================

FRIDAY, JUNE 23rd, 2017

--------------------------------------------------------------------------------------------------------------
7:30pm, MONONA Braves, [-0-] @ COTTAGE GROVE Firemen, [-1-]
--------------------------------------------------------------------------------------------------------------

==============================================================

SUNDAY, JUNE 25th, 2017

--------------------------------------------------------------------------------------------------------------
1:00pm, SUN PRARIE Sun Dawgs, [-13-] @ MARSHALL Firemen, [-4-]
--------------------------------------------------------------------------------------------------------------
1:00pm, PORTAGE Skeeters, [-15-] @ COLUMBUS Crawdads, [-0-]
--------------------------------------------------------------------------------------------------------------
1:00pm, DeFOREST Deacons, [-10-] @ RIO Railmen, [-3-]
--------------------------------------------------------------------------------------------------------------

==============================================================

FRIDAY, JUNE 30th, 2017

--------------------------------------------------------------------------------------------------------------
7:30pm, DeFOREST Deacons, [-1-] @ COTTAGE GROVE Firemen, [-5-]
--------------------------------------------------------------------------------------------------------------
7:30pm, COLUMBUS Crawdads, [-?-] @ MONONA Braves, [-?-]
--------------------------------------------------------------------------------------------------------------

==============================================================

SUNDAY, JULY 2nd, 2017

--------------------------------------------------------------------------------------------------------------
1:00pm, RIO Railmen, [-7-] @ POYNETTE Indians, [-14-]
--------------------------------------------------------------------------------------------------------------
1:00pm, SUN PRAIRIE Sun Dawgs, [-9-] @ MONTELLO Granite Jaxx, [-2-]
--------------------------------------------------------------------------------------------------------------
1:00pm, MARSHALL Firemen, [-5-] @ PORTAGE Skeeters, [-8-]
--------------------------------------------------------------------------------------------------------------

==============================================================

TUESDAY, JULY 4th, 2017 -- "#241"

--------------------------------------------------------------------------------------------------------------
12:00pm, COLUMBUS Crawdads, [-?-] @ MARSHALL Firemen, [-?-]
-------------------------------------------------------
-------------------------------------------------------
1:00pm, PORTAGE Skeeters, [-7-] @ RIO Railmen, [-8-]
--------------------------------------------------------------------------------------------------------------
1:00pm, SUN PRAIRIE Sun Dawgs, [-5-] @ MONONA Braves, [-6-]
--------------------------------------------------------------------------------------------------------------
1:00pm, COTTAGE GROVE Firemen, [-?-] @ MONTELLO Granite Jaxx, [-?-]
--------------------------------------------------------------------------------------------------------------
3:00pm, MARSHALL Firemen, [-?-] vs COLUMBUS Crawdads, [-?-] @ Marshall
--------------------------------------------------------------------------------------------------------------

==============================================================

SATURDAY, JULY 8th, 2017

--------------------------------------------------------------------------------------------------------------
1:00pm, DeFOREST Deacons, [-4-] @ POYNETTE Indina, [-14-]
--------------------------------------------------------------------------------------------------------------
3:00pm, COTTAGE GROVE Firemen, [-3-] @ SUN PRAIRIE Sun Dawgs, [-4-]
-------------------------------------------------------

==============================================================

SUNDAY, JULY 9th, 2017

--------------------------------------------------------------------------------------------------------------
1:00pm, PORTAGE Skeeters, [-1-] @ MONTELLO Granite Jaxx, [-0-]
--------------------------------------------------------------------------------------------------------------
1:00pm, POYNETTE Indians, [-12-] @ COLUMBUS Crawdads, [-0-]
--------------------------------------------------------------------------------------------------------------
1:00pm, DeFOREST Deacons, [-5-] @ MONONA Braves, [-2-]
--------------------------------------------------------------------------------------------------------------
4:30pm, POYNETTE Indians, [-?-] @ MARSHALL Firemen, [-?-]
--------------------------------------------------------------------------------------------------------------

==============================================================

SUNDAY, JULY 16th, 2017

--------------------------------------------------------------------------------------------------------------
12:00pm, POYNETTE Indians, [-5-] @ COTTAGE GROVE Firemen, [-6-]
--------------------------------------------------------------------------------------------------------------
1:00pm, MARSHALL Firemen, [-?-] @ MONTELLO Granite Jaxx, [-?-]
--------------------------------------------------------------------------------------------------------------
1:00pm, MONONA Braves, [-10-] @ PORTAGE Skeeters, [-9-]
--------------------------------------------------------------------------------------------------------------
1:00pm, COLUMBUS Crawdads, [-5-] @ DeFOREST Deacons, [-15-]
----------------------------------------------
3:30pm, DeFOREST Deacons, [-17-] @ COLMUBUS Crawdads, [-0-]
--------------------------------------------------------------------------------------------------------------
1:00pm, SUN PRAIRIE Sun Dawgs, [-20-] @ RIO Railmen, [-12-]
--------------------------------------------------------------------------------------------------------------

==============================================================

FRIDAY, JULY 21st, 2017

--------------------------------------------------------------------------------------------------------------
7:30pm, COTTAGE GROVE Firemen, [-?-]MARSHALL Firemen, [-?-]
--------------------------------------------------------------------------------------------------------------

==============================================================

SUNDAY, JULY 23rd, 2017

--------------------------------------------------------------------------------------------------------------
1:00pm, RIO Railmen, [-?-] @ MONTELLO Granite Jaxx, [-?-]
--------------------------------------------------------------------------------------------------------------
1:00pm, PORTAGE Skeeters, [-?-] @ DeFOREST Deacons, [-?-]
--------------------------------------------------------------------------------------------------------------
1:00pm, POYNETTE Indians, [-?-] @ MONONA Braves, [-?-]
--------------------------------------------------------------------------------------------------------------
1:00pm, COLUMBUS Crawdads, [-0-] @ SUN PRAIRIE Sun Dawgs, [-15-]
--------------------------------------------------------------------------------------------------------------

==============================================================

FRIDAY, JULY 28th, 2017

--------------------------------------------------------------------------------------------------------------
7:30pm, RIO Railmen, [-3-] @ MONONA Braves, [-7-]
--------------------------------------------------------------------------------------------------------------

==============================================================

SUNDAY, JULY 30th, 2017

--------------------------------------------------------------------------------------------------------------
1:00pm, MARSHALL Firemen, [-5-] @ POYNETTE Indians, [-15-]
--------------------------------------------------------------------------------------------------------------
%%%%%%%%%%%%%%%%%%%%%%%%%%%%%%%%%%%%%%%%%%%%%%
-------------------------------------------------------
1:00pm, (15in)

Games: "3-Stars"

#1 - Colye Buss, (PTS)

#2 - Adam Bortz, (PTS)

#3 - Ryan Roscoe, (SPS)

------------------------------------------------------
[BOX SCORE]
-
PORTAGE Skeeters---000-001-000-000-001---2-9-x
-
[PITCHING: (IP-H-ER-BB-SO) --- WP-Kalen Mace, [3.0-10-0-5]

Colyn Buss, [12-12-1-1-8]
-
[BATTING: (AB-R-H-RBI) --- Colyn Buss, 4-0-0-0;

Adam Walz, 6-0-1-0; Trevin Kreier, 2-0-0-0;

Ethan Greene, 6-0-1-0; Brady Greene, 7-0-0-0;

Kalen Mace, 5-2-2-0; Adam Boltz, 6-0-2-2;

Jakob Kastenholz, 3-0-0-0; Patrick Austin, 6-0-2-0;

Travis Hamilton, 7-0-1-0; TOTALS: 52-2-9-x;

~@~~~

SUN PRAIRIE Sun Dawgs---000-000-001-000-000---1-13-x
-
[PITCHING: (IP-H-ER-BB-SO) --- LP-Aaron Schmiidt, [6.0-3-1-1-3]

Bryce Hanson, [0.0-0-0-0]

Ryan Roscoe, [9.0-6-1-7-9]
-
[BATTING: (AB-R-H-RBI) --- Jack Maastricht, 7-0-2-0;

Drew Hamilton, 5-0-2-0; Aaron Schmidt, 7-0-1-0;

Pete Fassbender, 4-0-2-1; Bryce Hanson, 0-0-0-0;

Justin Krebs, 5-0-1-0; Marcus Rueter, 6-1-4-0;

Brad Johnson, 2-0-0-0; Mike Engelhart, 1-0-0-0;

David Diaz, 1-0-0-0; Kasey Bass, 6-0-1-0;

Bradley Calkins, 5-0-0-0; Randy Molina, 6-0-0-0;

Ryan Roscoe, 0-0-0-0; TOTALS: 55-1-13-x;

-------------------------------------------------------
%%%%%%%%%%%%%%%%%%%%%%%%%%%%%%%%%%%%%%%%%%%%%%
--------------------------------------------------------------------------------------------------------------
1:00pm, MONTELLO Granite Jaxx, [-4-] @ DeFOREST Deacons, [-2-]
--------------------------------------------------------------------------------------------------------------
1:00pm, COTTAGE GROVE Firemen, [-19-] @ COLUMBUS Crawdads, [-3-]
--------------------------------------------------------------------------------------------------------------

==============================================================

WEDNESDAY, AUGUST 2nd, 2017

--------------------------------------------------------------------------------------------------------------
7:30pm, COLUMBUS Crawdads, [-0-] @ MONONA Braves, [-10-]
--------------------------------------------------------------------------------------------------------------

==============================================================

SATURDAY, AUGUST 5th, 2017

--------------------------------------------------------------------------------------------------------------
1:00pm, POYNETTE Indians, [-15-] @ SUN PRAIRE Sun Dawgs, [-5-]
--------------------------------------------------------------------------------------------------------------

==============================================================

SUNDAY, AUGUST 6th, 2017

--------------------------------------------------------------------------------------------------------------
%%%%%%%%%%%%%%%%%%%%%%%%%%%%%%%%%%%%%%%%%%%%%%
-------------------------------------------------------
12:00pm, At Poynette

(Games: "3-Stars"

#1 - Randy Molina, (SPD)

#2 - Davy Tomlinsson, (PTI)

#3 - Aaron Schmidt, (SPD)

-------------------------------------------------------

SUN PRAIRIE Sun Daws---000-120-200---5-10-0
-
[PITCHING: (IP-H-ER-BB-SO)

WP-Ryan Roscoe, [9.0-10-2-2-1]
-
[BATTING: (AB-R-H-RBI) --- Jack Maastricht, 4-1-1-0;

Drew Hamilton, 4-0-0-0; Aaron Schmidt, 4-1-1-1;

Pete Fassbender, 3-2-2-0; Bryce Hanson, 1-0-1-0;

Justin Krebs, 3-0-0-0; Marcus Rueter, 5-1-1-0;

Mike Engelhart, 1-0-0-0; Adam Ney, 0-0-0-0;

Kasey Bass, 3-0-2-1; Bradley Calkins, 3-0-0-0;

Randy Molins, 4-0-2-2; Ryan Roscoe, 0-0-0-0;

TOTALS: 35-5-10-x;

~@~~~

POYNETTE Indians---001-000-001---2-10-0
-
[PITCHING: (IP-H-ER-BB-SO)

LP-Anthony Mebrey, [7.0-9-4-2-1]

Alex O'Conner, [2.0-1-0-01]
-
[BATTING: (AB-R-H-RBI) --- Jalen Knuteson, 3-0-1-1;

Anthony Mabrey, 4-0-1-0; Andy Knureson, 4-0-1-0;

Aaron Krigbaum, 4-0-1-0; Steve Leiterman, 4-1-2-0;

Dylan Tomlinson, 3-1-1-0; Alex O'Connor, 4-0-0-0;

Davy Tomlinson, 5-0-1-1; Kory Ryan, 4-0-2-0;

TOTALS: 35-2-10-x;

-------------------------------------------------------
%%%%%%%%%%%%%%%%%%%%%%%%%%%%%%%%%%%%%%%%%%%%%%
--------------------------------------------------------------------------------------------------------------
1:00pm, PORTAGE Skeeters, [-1-] @ COTTAGE GROVE Firemen, [-6-]
--------------------------------------------------------------------------------------------------------------
1:00pm, MARSHALL Firemen, [-2-] @ DeFOREST Deacons, [-8-]
--------------------------------------------------------------------------------------------------------------
1:00pm, MONONA Braves, [-?-] @ MONTELLO Granite Jaxx, [-?-]
--------------------------------------------------------------------------------------------------------------
3:30pm, COLUMBUS Crawdads, [-0-] vs RIO Railmen, [-10-] @ Poynette,
--------------------------------------------------------------------------------------------------------------

_______________________

End of Regular Season
_______________________


==============================================================
%%%%%%%%%%%%%%%%%%%%%%%

2017, EASTERN Playoffs

==============================================================
%%%%%%%%%%%%%%%%%%%%%%%

SUNDAY, AUGUST 13th, 2017

--------------------------------------------------------------------------------------------------------------
1:00pm, MONONA Braves, [-2-] @ MONTELLO Granite Jaxx. [-11-]
--------------------------------------------------------------------------------------------------------------
1:00pm, PORTAGE Steekers, [-3-] @ COTTAGE GROVE Firemen, [-1-]
--------------------------------------------------------------------------------------------------------------

==============================================================
%%%%%%%%%%%%%%%%%%%%%%%%%%%%%%%%%%%%%%%%%%%%%%

SUNDAY, AUGUST 20th, 2017

--------------------------------------------------------------------------------------------------------------
1:00pm,
-
PORTAGE Skeeters, [-3-] @ MONTELLO Granite Jaxx, [-4-]
--------------------------------------------------------------------------------------------------------------

==============================================================
%%%%%%%%%%%%%%%%%%%%%%%%%%%%%%%%%%%%%%%%%%%%%%

SUNDAY, AUGUST 27th, 2017

--------------------------------------------------------------------------------------------------------------
1:00pm,
-
SOUTHEAST, STOUGHTON Merchants, [-9-]

~@~~~

WESTERN, DOGEVILLE Knights, [-3-]
--------------------------------------------------------------------------------------------------------------
1:00pm,
-
NORTHERN, MIDDLETON 29ers, [-7-]

~@~~~

EASTERN, MONTELLO Granite Jaxx, [-0-]
--------------------------------------------------------------------------------------------------------------

==============================================================
%%%%%%%%%%%%%%%%%%%%%%%%%%%%%%%%%%%%%%%%%%%%%%

SUNDAY, SEPTEMBER 3rd, 2017

--------------------------------------------------------------------------------------------------------------
1:00pm,
-
NORTHERN, MIDDLETON 29ers, [-L-] ---(1-1)

~@~~~

SOUTHEAST, STOUGHTON Merchants, [-W-] --- (2-0)
--------------------------------------------------------------------------------------------------------------
1:00pm,
-
EASTERN, MONTELLO Granite Jaxx, [-W-] --- (0-1)

~@~~~

WESTERN, DODGEVILLE Knights, [-L-] --- (0-1)
--------------------------------------------------------------------------------------------------------------

==============================================================
%%%%%%%%%%%%%%%%%%%%%%%%%%%%%%%%%%%%%%%%%%%%%%

SUNDAY, SEPTEMBER 10th, 2017

--------------------------------------------------------------------------------------------------------------
1:00pm,
-
SOUTHEAST, STOUGHTON Merchants, [-5-]

~@~~~

EASTERN, MONTELLO Granite Jaxx, [-4-]
--------------------------------------------------------------------------------------------------------------
1:00pm,
-
WESTERN, DODGEVILLE Knights, [-0-]

~@~~~

NORTHERN, MIDDLETON 29er's, [-7-]
--------------------------------------------------------------------------------------------------------------
==============================================================
%%%%%%%%%%%%%%%%%%%%%%%%%%%%%%%%%%%%%%%%%%%%%%




==============================================================




==============================================================

HOME TALENT BASEBALL LEAGUE, EASTERN Section, - "HISTORY"

==============================================================

2017, H.T.L. EASTERN Section, "FINAL" Standings

------W--L---.PCT----TEAMS
-----14---4---.778------MONTELLO Granite Jaxx
-----14---4---.778------COTTAGE GROVE Firelmen
-----13---5---.722------PORTAGE Skeeters
-----11---6---.647------MONONA Braves
-----10---8---.556------DeForest Deacons
-----10---8---.556------POYNETTE Indians
-----10---8---.556------SUN PRAIRIE Sun Dawgs
------4--14---.222------MARSHALL Firemen
------4--14---.222------RIO Railmen
------0--18---.000------COLUMBUS Crawdads

Final Four: MONTELLO Granite Jaxx

==============================================================

2016, H.T.L. EASTERN Section, "FINAL" Standings

------W--L---.PCT----TEAMS
-----14---4---.778-----SUN PRAIRIE Sun Dawgs
-----13---5---.722-----PORTAGE Skeeters
-----12---6---.667-----POYNETTE Indians
-----11---7---.611-----MONONA Braves
-----10---8---.556-----COTTAGE GROVE Firemen
-----10---8---.556-----DeFOREST Deacons
------9---9---.500-----MONTELLO Granite Jaxx
------6--12---.333-----RIO Railmen
------5--13---.278-----MARSHALL Firemen
------0--18---.000-----COLUMBUS Crawdads

Final Four: MONONA Braves

==============================================================

2015, H.T.L. EASTERN Section, "FINAL" Standings

------W--L---.PCT----TEAMS
-----14---4---.778-----MONONA Braves
-----12---6---.667-----POYNETTE Indians
-----11---7---.611-----COTTAGE GROVE Firemen
-----11---7---.611-----DeFOREST Deacons
-----11---7---.611-----PORTAGE Skeeters
------9---9---.500-----SUN PRAIRIE Sun Dawgs
------8--10---.444-----RIO Railmen
------8--10---.444-----MONTELLO Granite Jaxx
------5--13---.278-----MARSHALL Firemen
------1--17---.056-----COLUMBUS Crawdads

Final Four: MONONA Braves

==============================================================

2014, H.T.L. EASTERN Section, "FINAL" Standings

------W--L---.PCT----TEAMS
-----16---2---.889-----DeFOREST Deacons
-----15---3---.833-----COTTAGE GROVE Firemen
-----12---6---.667-----MONONA Braves
-----12---6---.667-----POYNETTE Indians
-----12---6---.667-----PORTAGE Skeeters
------8--10---.444-----RIO Railmen
------6--12---.333-----SUN PRAIRIE Sun Dawgs
------4--14---.222-----MONTTELLO Granite Jaxx
------3--15---.167-----MARSHALL Firemen
------2--16---.111-----COLUMBUS Crawdads

Final Four: DeFOREST Deacons

==============================================================

2013, H.T.L. EASTERN Section, "FINAL" Standings

------W--L---.PCT----TEAMS
-----17---1---.944-----MONONA Braves
-----12---6---.667-----DeFOREST Deacons
-----11---7---.611-----POYNETTE Indians
-----11---7---.611-----SUN PRAIRIE Sun Dawgs
------9---8---.579-----PORTAGE Skeeters
------9---9---.500-----COTTAGE GROVE Firemen
------7--11---.389-----RIO Railmen
------5--13---.278-----MARSHALL Firemen
------4--13---.235-----LODI Royals
------4--14---.222-----WATERLOO Firemen

Final Four: MONONA Braves

==============================================================

2012, H.T.L. EASTERN Section, "FINAL" Standings

------W--L---.PCT----TEAMS
-----13---3---.813-----MONONA Braves
-----11---5---.688-----DeFOREST Deacons
------8---7---.533-----RIO Railmen
------8---7---.533-----SUN PRAIRIE Sun Dawgs
------8---8---.500-----COTTAGE GROVE Firemen
------8---8---.500-----LODI Royals
------7---9---.438-----MARSHALL Firemen
------4--12---.250-----POYNETTE Indians
------3--13---.188-----WATERLOO Firemen

Final Four: MONONA Braves

==============================================================

2011, H.T.L. EASTERN Section, "FINAL" Standings

------W--L---.PCT----TEAMS
-----15---3---.833-----DeFOREST Deacons
-----15---3---.833-----MONOMA Braves
-----12---5---.706-----SUN PRAIRIE Sun Dawgs
-----12---6---.667-----LODI Royals
-----10---7---.588-----COTTAGE GROVE Firemen
------8---9---.471-----WATERLOO Firemen
------8--10---.444-----RIO Railmen
------4--13---.235-----MARSHALL Firemen
------4--14---.222-----POYNETTE Indians
------0--18---.000-----COLUMBUS Reds

Final Four: DeFOREST Deacons

==============================================================

2010, H.T.L. EASTERN Section, "FINAL" Standings

------W--L---.PCT----TEAMS
-----14---3---.824-----DeFOREST Deacons
-----12---5---.706-----COTTAGE GROVE Firemen
-----11---5---.688-----MONONA Braves
-----11---5---.688-----SUN PRAIRIE Sun Dawgs
-----10---7---.588-----LODI Royals
------9---9---.500-----RIO Railmen
------7--11---.389-----POYNETTE Indians
------6--11---.353-----MARSHALL Firemen
------5--12---.294-----WATERLOO Firemen
------0--17---.000-----COLUMBUS Reds

Final Four: DeFOREST Deacons

==============================================================

2009, H.T.L. EASTERN Section, "FINAL" Standings

------W--L---.PTC----TEAMS
-----16---2---.889-----SUN PRAIRIE Sun Dawgs
-----16---2---.889-----MONONA Braves
-----12---6---.667-----DeFOREST Deacons
-----11---7---.611-----COTTAGE GROVE Firemen
-----11---7---.611-----McFARLAND Muskies
------8--10---.444-----WATERLOO Firemen
------8--10---.444-----POYNETTE Indians
------3--15---.167-----MARSHALL Firemen
------3--15---.167-----COLUMBUS Reds
------2--16---.111-----RIO Railmen

Final Four: MONONA Braves

==============================================================

2008, H.T.L. EASTERN Section, "FINAL" Standings

------W--L---.PCT----TEAMS
-----14---4---.778-----MONONA Braves
-----13---5---.722-----DeFOREST Deacons
-----11---7---.611-----McFARLAND Muskies
-----11---7---.611-----SUN PRAIRIE Sun Dawgs
-----10---8---.556-----COTTAGE GROVE Firemen
-----10---8---.556-----MARSHALL Firemen
------9---9---.500-----POYNETTE Indians
------6--12---.333-----RIO Railmen
------5--13---.278-----WATERLOO Firemen
------1--17---.056-----COLUMBUS Reds

Final Four: SUN PRAIRIE Sun Dawgs

==============================================================

2007, H.T.L. EASTERN Section, "FINAL" Standings

------W--L---.PCT----TEAMS
-----17---1---.944-----MONONA Braves
-----12---6---.667-----COTTAGE GROVE Firemen
-----11---7---.611-----POYNETTE Indians
-----10---8---.556-----SUN PRAIRIE Sun Dawgs
-----10---8---.556-----DeFOREST Deacons
------9---9---.500-----MARSHALL Firemen
------8--10---.444-----McFARLAND Muskies
------6--12---.333-----WATERLOO Firemen
------6--12---.333-----RIO Railmen
------1--17---.056-----COLUMBUS Reds

Final Four: MONONA Braves,

2007, Grand Champions: MONONA Braves

==============================================================

2006, H.T.L. EASTERN Section, "FINAL" Standings

------W--L---.PCT----TEAMS
-----14---4---.778-----SUN PRAIRIE Sun Dawgs
-----12---6---.667-----MONONA Braves
-----11---7---.611-----POYNETTE Indians
-----11---7---.611-----DeFOREST Deacons
-----10---8---.556-----McFARLAND Muskies
------9---9---.500-----COTTAGE GROVE Firemen
------8--10---.444-----WATERLOO Firemen
------7--11---.389-----MARSHALL Firemen
------6--12---.333-----RIO Railmen
------2--16---.111-----COLUMBUS Reds

Final Four: POYNETTE Indians

==============================================================

2005, H.T.L. EASTERN Section, "FINAL" Standings

------W--L---.PCT----TEAMS
-----15---3---.833-----SUN PRAIRIE Sun Dawgs
-----14---4---.778-----MONONA Braves
-----12---6---.667-----COTTAGE GROVE Firemen
-----11---7---.611-----McFARLAND Muskies
-----10---8---.556-----DeFOREST Deacons
-----10---8---.556-----POYNETTE Indians
------7--11---.389-----WATERLOO Firemen
------6--12---.333-----RIO Railmen
------3--15---.167-----MARSHALL Firemen
------2--16---.111-----CAMBRIA Canners

Final Four: SUN PRAIRIE Sun Dawgs,

2005, Grand Champions: SUN PRAIRIE Sun Dawgs

==============================================================

2004, H.T.L. EASTERN Section, "FINAL" Standings

------W--L---.PCT----TEAMS
-----12---4---.750-----COTTAGE GROVE Firemen
-----12---4---.750-----MONONA Braves
-----10---6---.625-----SUN PRAIRIE Sun Dawgs
-----10---6---.625-----MARSHALL Firemen
-----10---6---.625-----WATERLOO Firemen
------6--10---.375-----RIO Railmen
------5--11---.313-----CAMBRIA Canners
------4--12---.250-----POYNETTE Indians
------3--13---.188-----DeFOREST Deacons

Final Four: SUN PRAIRIE Sun Dawgs

==============================================================

2003, H.T.L. EASTERN Section, "FINAL" Standings

------W--L---.PCT----TEAMS
-----14---4---.778-----MONONA Braves
-----13---4---.765-----COTTAGE GROVE Firemen
-----12---6---.667-----WATERLOO Firemen
-----11---7---.611-----POYNETTE Indians
-----10---8---.556-----CAMBRIA Canners
-----10---8---.556-----RIO Railmen
------8---9---.471-----SUN PRAIRIE Sun Dawgs
------5--13---.278-----MARSHALL Firemen
------4--13---.235-----COLUMBUS Reds
------1--16---.059-----DeFOREST Deacons

Final Four: COTTAGE GROVE Firemen

==============================================================

2002, H.T.L. EASTERN Section, "FINAL" Standings

------W--L---.PCT----TEAMS
-----17---1---.944-----COTTAGE GROVE Firemen
-----11---7---.611-----MONONA Braves
-----11---7---.611-----WATERLOO Firemen
-----10---8---.556-----POTNETTE Indians
-----10---8---.556-----SUN PRAIRIE Sun Dawgs
------9---9---.500-----COLUMBUS Reds
------9---9---.500-----CAMBRIA Canners
------6--12---.333-----MARSHALL Firemen
------5--13---.278-----DeFOREST Deacons
------2--16---.111-----RIO Railmen

Final Four: MONONA Braves

==============================================================

2001, H.T.L. EASTERN Section,

2001, Grand Champions: COTTAGE GROVE Firemen,

==============================================================

2000, H.T.L. EASTERN Section,

2000, Grand Champions: COTTAGE GROVE Firemen,

==============================================================

1998, H.T.L. EASTERN Section,

1998, Grand Champions: COTTAGE GROVE Firemen,

==============================================================

1997, H.T.L. EASTERN Section,

1997, Grand Champions: COTTAGE GROVE Firemen,

==============================================================

1996, H.T.L. EASTERN Section,

1996, Grand Champions: COTTAGE GROVE Firemen,

==============================================================

1989, H.T.L. EASTERN Section,

1989, Grand Champions, COTTAGE GROVE Firemen,

==============================================================

1987, H.T.L. EASTERN Section,

1987, Grand Champions, SUN PRAIRIE Sun Dawgs,

==============================================================

1984, H.T.L. EASTERN Section,

1984, Grand Champions, COTTAGE GROVE Firemen,

==============================================================

1983, H.T.L. EASTERN Section,

1983, Grand Champions, COTTAGE GROVE Firemen,

==============================================================

1978, H.T.L. EASTERN Section,

1978, Grand Champions, COTTAGE GROVE Firemen,

==============================================================

1973, H.T.L. EASTERN Section,

1973, Grand Champions, SUN PRAIRIE Sun Dawgs,

==============================================================

1967, H.T.L. EASTERN Section,

1967, Grand Champions, SUN PRAIRIE Sun Dawgs,

==============================================================

1965, H.T.L. EASTERN Section,

1965, Grand Champions, SUN PRAIRIE Sun Dawgs,

==============================================================

1964, H.T.L. EASTERN Section,

1964, Grand Champions, SUN PRAIRIE Sun Dawgs,

==============================================================

1963, H.T.L. EASTERN Section,

1963, Grand Champions, POYNETTE Indians,

==============================================================

1962, H.T.L. EASTERN Section,

1962, Grand Champions, SUN PRAIRIE Sun Dawgs,

==============================================================

1961, H.T.L. EASTERN Section,

1961, Grand Champions, SUN PRAIRIE Sun Dawgs,

==============================================================

1960, H.T.L. EASTERN Section,

1960, Grand Champions, SUN PRAIRIE Sun Dawgs,

==============================================================

1959, H.T.L. EASTERN Section,

1959, Grand Champions, SUN PRAIRIE Sun Dawgs,

==============================================================

1958, H.T.L. EASTERN Section,

1958, Grand Champions, SUN PRAIRIE Sun Dawgs,

==============================================================

1931, H.T.L. EASTERN Section,

1931, Grand Champions, SUN PRAIRIE Sun Dawgs,

==============================================================

1930, H.T.L. EASTERN Section,

1930, Grand Champions, SUN PRAIRIE Sun Dawgs,

==============================================================

--------------------------------------------------------------------------------------------------------------
Jack Sprecher, aka "Jack O' Diamonds"

ALGOMA CITY Baseball Historian

www.leaguelineup.com/algomaguins
--------------------------------------------------------------------------------------------------------------
"Have Game Will Travel"
-
"It all adds up to be 17 baseball seasons, and a

total of 631 games, along with over a 163 teams

in the state, and with a average of 38 games

each year."

Thank all who made it all fun. Jack

==============================================================


Venue Information and Directions


Click here for more information