LEAGUES, SCHEDULES, STANDINGS, RESULTS

Subscribe to our Newsletter
Back to Previous Page

2018, W.B.A. MISSISSIPPI VALLEY BASEBALL LEAGUE

Date(s):   5/1/2015 - 9/4/2015
Contact Info:
"Jack's Back Alley" off Third St.
920-558-9414
General Information .
==============================================================

-----------------------------2018,

MISSISSIPPI VALLEY BASEBALL LEAGUE,

of the

WISCONSIN BASEBALL ASSOCIATION

===============================================================

--------------------------------------------------------------------------------------------------------------
(Last Updated: February 12th, 2018)
-------------------------------------------------------
(Jack, at 920-558-9414)
-------------------------------------------------------
(wkrn1240@gmail.com)
--------------------------------------------------------------------------------------------------------------

==============================================================

2017, MISSISSIPPI VALLEY BASEBALL LEAGUE,

TEAMS:

SPARTA Miller

NORWALK Knights

CHASEBURG-COON VALLEY Blues

LA CRESCENT Cardinals

BANGOR Redbirds

LA CROSSE 35er's

MAUSTON Axemen

VIROQUA Sox

==============================================================

2018, MISSISSIPPI VALLEY BASEBALL LEAGUE, "Standings"

TEAMS-------------------------------------W--L---.PCT

SPARTA Miller------------------------------0---0---.000

LA CRESCENT Cardinals-------------------0---0---.000

LA CROSSE 35ers-------------------------0---0---.000

CHASEBURG-COON VALLEY Blues---------0---0---.000

MAUSTON Axemen------------------------0---0---.000

VIROQUA Sox-----------------------------0---0---.000

NORWALK Knights-------------------------0---0---.000

BANGOR RED BIRDS-----------------------0---0---.000

[14 Game Season]

--------------------------------------------------------------------------------------------------------------

--------------------------------------------------------------------------------------------------------------

2018, SCHEDULE & RESULTS

--------------------------------------------------------------------------------------------------------------

==============================================================

SATURDAY, MAY 27th, 2018

------------------------------------------------------------------
1:30pm, BANGOR Red Birds, [--] @ CHASEBURG-COON VALLEY Blues, [--]
--------------------------------------------------------------------------------------------------------------------------------------
3:00pm, VIROQUA Sox, [--] @ MAUSTON Axemen, [--]
--------------------------------------------------------------------------------------------------------------------------------------

==============================================================

MONDAY, MAY 28th, 2018

-------------------------------------------------------------------
1:30pm, NORWALK Knights, [--] @ BANGOR Red Birds, [--]
-------------------------------------------------------------------

================================================================

SATURDAY, JUNE 2nd, 2018

------------------------------------------------------------------
2:00pm, MAUSTON Axemen, [--] @ SPARTA Miller, [--]
------------------------------------------------------------------

================================================================

SUNDAY, JUNE 3rd, 2018

-------------------------------------------------------------------
1:30pm, LA CROSSE 35er's, [--] @ BANGOR Red Birds, [--]
-------------------------------------------------------------------
5:30pm, VIROQUA Sox, [--] @ NORWALK Knights, [--]
-------------------------------------------------------------------

=================================================================

FRIDAY, JUNE 8th, 2018

-------------------------------------------------------------------
7:30pm, VIROQUA Sox, [--] @ BANGOR Red Birds, [--]
-------------------------------------------------------------------

=================================================================

SATURDAY, JUNE 9th, 2018

!!!!!!!!!!!!!!!!!!!!!!!!!!!!!!!!!!!!!!!!!!!!!!!!!!!!!!!!!!!!!!!!!!!!!!!!!!!!!
------------------------------------------------------------------
1:30pm, LA CRESCENT Cardinals, [--] @ BANGOR Red Birds, [--]
-------------------------------------------------------------------
"Jack O' Diamonds" will be at the game of two go teams"
!!!!!!!!!!!!!!!!!!!!!!!!!!!!!!!!!!!!!!!!!!!!!!!!!!!!!!!!!!!!!!!!!!!!!!!!!!!!!!

================================================================

================================================================

SUNDAY, JUNE 10th, 2018

================================================================

7:oopm, CHASEBURG-COON VALLEY Blues, [--] @ VIROQUA Sox, [--]
-------------------------------------------------------------------

FRIDAY, JUNE 15th, 2018

-------------------------------------------------------------------
7:30pm, BANGOR Red Birds, [--] @ SPARTA Miller, [--]
-------------------------------------------------------------------

=================================================================

SATURDAY, JUNE 16th, 2018

-------------------------------------------------------------------
1:30pm, NORWALK Knights, [--] @ MAUSTON Axemen, [--]
-------------------------------------------------------------------
1:30pm, LA CRESCENT Cardinals, [--] @ VIROQUA Sox, [--]
------------------------------------------------------------------

=================================================================

SUNDAY, JUNE 17th, 2018

~~~ "Fathers Day" ~~~

-------------------------------------------------------------------
1:30pm, CHASEBURG-COON VALLEY Blues, [--] @ BANGOR Red Birds, [--]
-------------------------------------------------------------------
-------------------------------------------------------------------
2:00pm, VIROQUA Sox, [--] @ MAUSTON Axemen, [--]
------------------------------------------------------------------

================================================================

FRIDAY, JUNE 22sd, 2018

7:00pm, VIROQUA Sox, [--] @ LA CROSSE 35er's, [--]
-------------------------------------------------------------------

================================================================

SATURDAY, JUNE 23rd, 2018

-------------------------------------------------------------------
2:00pm, CHASEBURG-COON VALLEY Blues, [--] @ MAUSTON Axemen, [--]
-------------------------------------------------------------------

================================================================

SUNDAY, JUNE 24th, 2018

------------------------------------------------------------------
2:00pm, BANGOR Red Birds, [--] @ MAUSTON Axemen, [--]
------------------------------------------------------------------

=================================================================

SATURDAY, JUNE 30th, 2018

------------------------------------------------------------------
2:00pm, LA CROSSE 35er's, [--] @ MAUSTON Axemen, [--]
------------------------------------------------------------------

=================================================================

SUNDAY, JULY 1st, 2018

------------------------------------------------------------------
1:30pm, BANGOR Red Birds, [--] @ LA CRESCENT Cardinals, [--]
-------------------------------------------------------------------
-------------------------------------------------------------------
2:00pm, MAUSTON Axemen, [--] @ SPARTA Miller, [--]
-------------------------------------------------------------------

================================================================

WEDNESDAY, JULY 4th, 2018

-------------------------------------------------------------------
6:00pm, SPARTA Miller, [--] @ BANGOR Red Birds, [--]
-------------------------------------------------------------------

================================================================

SUNDAY, JULY 8th, 2018

------------------------------------------------------------------
5:30pm, BANGOR Red Birds, [--] @ NORWALK Knights, [--]
------------------------------------------------------------------

================================================================

SATURDAY, JULY 14th, 2018

!!!!!!!!!!!!!!!!!!!!!!!!!!!!!!!!!!!!!!!!!!!!!!!!!!!!!!!!!!!!!!!!!!!!!!!!!!!!!
------------------------------------------------------------------
1:00pm, LA CRESCENT Cardinals, [--] vs MAUSTON Axemen, [--]
-------------------------------------------------------------------
"The Games will have "Jack O' Diamonds" for a Doubleheader"
------------------------------------------------------------------
3:00pm, MAUSTON Axemen, [--] vs LA CRESCENT Cardinals, [--]
-------------------------------------------------------------------
!!!!!!!!!!!!!!!!!!!!!!!!!!!!!!!!!!!!!!!!!!!!!!!!!!!!!!!!!!!!!!!!!!!!!!!!!!!!!!

================================================================

SUNDAY, JULY 15th, 2018

-------------------------------------------------------------------
1:30pm, BANGOR Red Birds, [--] @ VIROQUA Sox, [--]
-------------------------------------------------------------------

================================================================

SUNDAY, JULY 17th, 2018

-------------------------------------------------------------------
1:30pm, SPARTA Miller, [--] @ VIROQUA Sox, [--]
-------------------------------------------------------------------

================================================================

WEDNESDAY, JULY 18th, 2018

------------------------------------------------------------------
7:00pm, VIROQUA Sox, [--] @ SPARTA Miller, [--]
------------------------------------------------------------------

================================================================

FRIDAY, JULY 20th, 2018

------------------------------------------------------------------
7:30pm, NORWALK Knights, [--] @ MAUSTON Axemen, [--]
------------------------------------------------------------------

================================================================

SATURDAY, JULY 21st, 2018

1:30pm, VIROQUA Sox, [--] @ LA CRESCENT Cardinals, [--]
-------------------------------------------------------------------
7:00pm, MAUSTON Axemen, [--] @ BANGOR Red Birds, [--]
-------------------------------------------------------------------


================================================================

SUNDAY, JULY 22nd, 2018

1:30pm, NORWALK Knights, [--] @ VIROQUA Sox, [--]
-------------------------------------------------------------------
4:30pm, BANGOR Red Birds, [--] @ LA CROSSE 35er's, [--]
-------------------------------------------------------------------


================================================================

WEDNESDAY, JULY 25th, 2018

-------------------------------------------------------------------
7:30pm, MAUSTON Axemen, [--] @ CHASEBURG-COON VALLEY Blues, [--]
------------------------------------------------------------------

================================================================

FRIDAY, JULY 27th, 2018

-------------------------------------------------------------------
7:30pm, MAUSTON Axemen, [--] @ LA CROSSE 35er's, [--]
-------------------------------------------------------------------

____________________

End of Regular Season
____________________


==============================================================


==============================================================
=
MISSISSIPPI VALLEY BASEBALL LEAGUE

"HISTORY"
=
==============================================================

2017, MISSISSIPPI VALLEY BASEBALL LEAGUE,

"FINAL" Standings,

TEAMS--------------------------------W--L---PCT.

SPARTA MILLER---------------------10---0---1.000

LA CRESCENT Cardinals--------------11--3---.786

LA CROSSE 35er's--------------------7--3----.700

CHASEBURG-COON VALLEY Blues----8--4----.667

VIROQUA Sox-------------------------5--8---.385

MAUSTON Axemen--------------------4--8---.333

BANGOR Red Birds--------------------3--8---.273

NORWALK Knights--------------------3--8---.273

LANSING-Mudcats--------------------1--10---.091

==============================================================

2016, MISSISSIPPI VALLEY BASEBALL League,

"FINAL" Standings,

TEAMS--------------------------------W--L---.PCT

CHASEBURG-COON VALLEY Blues---13---2---.867

SPARTA Miller------------------------13---2---.867

LA CROSSE 35er's-------------------10---4---.714

LA CRESENT Cardinals----------------9---4---.692

BANGOR Red Birds-------------------6---8---.429

LANSING Mudcats--------------------4---8---.333

VIROQUA Sox------------------------4--10---.286

MAUSTON Axemen-------------------2--11---.154

NORWALK Knights-------------------1--13---.071

==============================================================

2015, MISSISSIPPI VALLEY BASEBALL League,

"FINAL" Standings,

TEAMS--------------------------------W--L---.PCT

CHASEBURG-COON VALLEY Blues---18---2---.900

SPARTA Miller------------------------17---3---.850

LA CRESCENT Cardinals-------------15---5---.750

LANSING Mudcats-------------------11---9---.550

MAUSTON Axemen-------------------8---9---.471

VIROQUA Sox------------------------9--11---.450

LA CROSSE 35er's-------------------6--10---.375

ONALASKA Twins--------------------6--14---.300

BANGOR Red Birds------------------6--14---.300

NORWALK Knights-------------------4--14---.222

WISCONSIN DELLS Rivermen--------3--13---.200

==============================================================

2014, MISSISSIPPI VALLEY BASEBALL League,

"FINAL" Standings

TEAMS--------------------------------W--L---.PCT

CHASEBURG-COON VALLEY Blues---16---2---.889

SPARTA Miller------------------------15---3---.833

LA CROSSE 35er's------------------.13---5---.722

LA CRESCENT Cardinals-------------12---6---.667

ONALASKA Twins--------------------10---8---.556

VIROQUA Sox------------------------4--11---.267

MAUSTON Axemen-------------------4--12---.250

BANGOR Red Birds-------------------4--13---.235

NORWALK Knights-------------------3--13---.187

LANSING Mudcats--------------------2--10---.167

==============================================================

2013, MISSISSIPPI VALLEY BASEBALL League,

"FINAL" Standings

TEAMS--------------------------------W--L---.PCT

SPARTA Miller------------------------17---1---.944

LA CRESCENT Cardinals-------------15---3---.833

CHASEBURG-COON VALLEY Blues---13---5---.722

LA CROSSE 35er's-------------------10---8---.556

ONALASKA Twins--------------------10---8---.556

BANGOR Red Birds-------------------7--11---.389

VIROQUA Sox------------------------6--12---.333

NORWALK Knights-------------------5--13---.278

LANSING Mudcats--------------------3--15---.167

MAUSTON Axemen-------------------2--16---.111

==============================================================

2012, MISSISSIPPI VALLEY LEAGUE "FINAL" Standings

TEAMS--------------------------------W--L---.PCT

CHASEBURG-COON VALLEY Blues---13---1---.929

SPARTA Miller------------------------11---3---.786

LA CROSSE 35er's--------------------9---5---.727

LA CRESCENT Cardinals---------------8---6---.538

NORWALK Knights--------------------7---7---.500

BANGER Redbirds---------------------5---8---.385

LANSING Mudcats---------------------2--10---.167

KENDALL Mustangs------------------0---13---.000

==============================================================

2011, MISSISSIPPI VALLEY LEAGUE "FINAL" Standings

TEAMS----------------------------------W--L---.PCT

CHASEBURG-COON VALLEY Blues-----14---2---.875

SPARTA Miller--------------------------13---3---.812

ONALASKA Athletics-------------------12---3---.800

LA CRESCENT Cardinals-----------------9---7---.562

LA CROSSE 35ers-----------------------8---8---.500

BANGOR Redbirds----------------------5--10---.333

PRAIRIE du CHIEN Stormtrackers-------4---9---.308

NORWALK Knights---------------------3--13---.187

LANSING Mudcats----------------------1--14---.067

==============================================================

2010, MISSISSIPPI VALLEY LEAGUE "FINAL" Standings

------W--L---.PCT----TEAMS
-----10---2---.818-----SPARTA Miller
------9---3---.750-----LA CRESCENT Cardinals
------8---4---.667-----ONALASKA Athletics
------6---6---.500-----CHASEBURG-COON VALLEY Blues
------3---8---.273-----NORWALK Knights
------3---9---.250-----LANSING Mudcats
------2---9---.182-----BANGOR Redbirds

==============================================================

2009, MISSISSIPPI VALLEY LEAGUE "FINAL" Standings

------W--L---.PCT----TEAMS
-----10---2---.833-----CHASEBURG-COON VALLEY Blues
------9---2---.812-----LA CROSSE Athletics
------7---4---.636-----LA CRESCENT Cardinals
------6---5---.545-----SPARTA Miller
------4---8---.333-----BANGOR Redbirds
------3---8---.273-----NORWALK Knights
------1--11---.083-----LANSING Mudcats

==============================================================

2008, MISSISSIPPI VALLEY LEAGUE "FINAL" Standings

------W--L---.PCT----TEAMS
-----13---3---.812-----CHASEBURG-COON VALLEY Blues
-----13---3---.812-----LA CRESCENT Cardinals
-----11---5---.688-----BANGOR Redbirds
-----10---6---.625-----NORWALK Knights
-----10---6---.625-----LA CROSSE Athletics
------8---8---.500-----SPARTA Miller
------4--12---.250-----ELROY Renegades
------1--13---.071-----KENDALL Mustangs
------0--14---.000-----BLACK RIVER FALLS Mudcats

==============================================================

2007, MISSISSIPPI VALLEY LEAGUE "FINAL" Standings

------W--L---.PCT----TEAMS
-----15---3---.833-----CHASEBURG-COON VALLEY Blues
-----15---3---.833-----LA CROSSE Athletics
-----14---4---.778-----LA CRESCENT Cardinals
-----10---8---.556-----NORWALK Knights
-----10---8---.556-----SPARTA Miller
------9---9---.500-----BANGOR Redbirds
------6--12---.333-----BLACK RIVER FALLS Mudcats
------4--13---.235-----LA FARGE/ROCKTON Tabs
------3--14---.176-----KENDALL Mustangs
------3--15---.167-----ELROY Renegades

==============================================================

2006, MISSISSIPPI VALLEY LEAGUE "FINAL" Standings

------W--L---.PCT----TEAMS
-----11---3---.786-----SPARTA Miller
-----11---3---.786-----BANGOR Redbirds
------9---5---.643-----CHASEBURG-COON VALLEY Blues
------8---6---.571-----LA CRESCENT Cardinals
------7---7---.500-----BLACK RIVER FALLS Mudcats
------5---9---.357-----NORWALK Knights
------4--10---.286-----KENDALL Mustangs
------1--13---.071-----ROCKTON Tabs

==============================================================

2005, MISSISSIPPI VALLEY LEAGUE "FINAL" Standings

------W--L---.PCT----TEAMS
-----16---0--1.000-----SPARTA Miller
-----12---4---.750-----LA CRESCENT Cardinals
-----10---6---.625-----CHASEBURG-COON VALLEY Blues
------9---7---.563-----NORWALK Knights
------7---9---.438-----BANGOR Redbirds
------6--10---.375-----MAUSTON Red Sox
------5--11---.313-----KENDALL Mustangs
------5--11---.313-----WINONA Chiefs
------0--16---.000-----ROCKTON Tabs

==============================================================

2004, MISSISSIPPI VALLEY LEAGUE "FINAL" Standings

------W--L---.PCT----TEAMS
-----13---2---.887-----LA CROSSE Titans
-----11---5---.688-----NORWALK Knights
-----11---5---.688-----BANGOR Redbirds
-----10---5---.667-----CHASEBURG-COON VALLEY Blues
------8---8---.500-----SPARTA Miller
------7---9---.438-----LA CRESCENT Cardinals
------4--12---.250-----MAUSTON Red Sox
------3--13---.188-----KENDALL Mustangs
------3--13---.188-----ROCKTON Tabs

==============================================================

--------------------------------------------------------------------------------------------------------------
Jack Sprecher, aka "Jack O' Diamonds"

ALGOMA City Baseball Historian,

"101 Years of ALGOMA BASEBALL"

www.leaguelineup.com/algomaguins,

920-558-9414
-------------------------------------------------------
"Have Game Will Travel"
-
"It all adds up to be 16 baseball seasons,

and a total of 621 games,

with an average of 40 games each year.

Thanks, all who made it all fun. Jack
--------------------------------------------------------------------------------------------------------------

==============================================================

Venue Information and Directions