Last Updated: October 14, 2017

Back to Previous Page

W.B.A. MISSISSIPPI VALLEY BASEBALL LEAGUE
Date(s):   5/1/2015 - 9/4/2015
Contact Info:

920-304-2211
General Information
.
==============================================================

---------------------2017,

MISSISSIPPI VALLEY BASEBALL LEAGUE,

of the

WISCONSIN BASEBALL ASSOCIATION

==============================================================

--------------------------------------------------------------------------------------------------------------
(Last Updated: July 22nd, 2017)
-------------------------------------------------------
(Jack, at 920-304-2211)
-------------------------------------------------------
(wkrn1240@gmail.com)
--------------------------------------------------------------------------------------------------------------

==============================================================

2017, MISSISSIPPI VALLEY BASEBALL LEAGUE,

TEAMS: --- SPARTA Miller, --- NORWALK Knights,

CHASEBURG-COON VALLEY Blues,

LA CRESCENT Cardinals, --- LANSING Mudcats,

BANGOR Redbirds, --- LA CROSSE 35er's,

MAUSTON Axemen, --- VIROQUA Sox,

==============================================================

2017, MISSISSIPPI VALLEY BASEBALL LEAGUE, "Standings"

------W--L---.PCT----TEAMS
-----10---0-1.000---------SPARTA Miller
-----11---3---.786--------LA CRESCENT Cardinals
------7---3---700---------LA CROSSE 35ers
------8---4---.667--------CHASEBURG-COON VALLEY Blues
------4---8---.333--------MAUSTON Axemen
------5---8---.250--------VIROQUA Sox
------3---8---.273--------NORWALK Knights
------1--10---.091--------LANSING Mudcats
------3---8---.273--------BANGOR RED BIRDS

[14 Game Season] "GO RED BIRDS" from "Jack O' Diamonds"

--------------------------------------------------------------------------------------------------------------

--------------------------------------------------------------------------------------------------------------

2017, SCHEDULE & RESULTS

--------------------------------------------------------------------------------------------------------------

==============================================================

SATURDAY, MAY 27th, 2017
===============================
===============================
--------------------------------------------------------------------------------------------------------------
##############################################################
-------------------------------------------------------
7:00pm, At Viroqua Park,

(GAMES: "3-Stars"

#1 - Mike White, (BRB)

#2 - Jared Steigerwald, (BRB)

#3 - Nick Ikert, (BRB)

-------------------------------------------------------
BANGOR Red Birds---500-000-040---9-8-3
-
[PITCHING: (IP-H-ER-BB-SO) --- LP-Nate Tucker, [5.0-9-5-4-5]

Jeff Parr, [3.0-5-4-4-5]
-
[BATTING: (AB-R-H-RBI) --- Dylan Blount, 1-0-1-0;

Ryan Robbins,6-1-2-0; Nick Ikert, 2-2-1-1;

Jared Steigerwald, 4-0-1-2; Mike White, 3-1-1-3;

Luke Reader, 4-1-0-1; Jeff Parr, 5-0-1-0;

Nate Tucker, 2-0-0-0; Justin Ikert, 4-1-1-1;

Noah Freit, 4-2-0-0; Andy Sanchez, 1-1-0-0;

TOTALS: 36-9-8-3;

~@~~~

VIROQUA Sox---032-022-13x---13-14-2
-
[PITCHING: Not Available
-
[BATTING: Not Available

-------------------------------------------------------
##############################################################
--------------------------------------------------------------------------------------------------------------

==============================================================

MONDAY, MAY 29th, 2017
===============================
===============================
--------------------------------------------------------------------------------------------------------------
##############################################################
-------------------------------------------------------
1:30pm, At Coon Valley,

(Games: "3-Stars"

#1 - Jack Reader, (BRB)

#2 - Luke Schuiltz, (BRB)

#3 - Alex Faust, (BRB)

-------------------------------------------------------
BANGOR Red Birds---000-001-000---1-9-1
-
[PITCHING: (IP-H-ER-BB-SO) --- LP-Luke Schuitz, [8.0-7-1-1-7]
-
[BATTING: (AB-R-H-RBI) --- Luke Reader, 5-0-3-0;

Ryan Robbins, 4-0-0-0; Nick Ikert, 4-0-2-0;

Tony Schultz, 4-0-1-0; Mike White, 4-1-0-0;

Alex Faust, 4-0-2-0; Luke Schultz, 4-0-1-0;

Jack Reader, 4-0-0-0; Andrew Parr, 4-0-0-0;

TOTALS: 37-1-9-1;

~@~~~

CHASEBURG-COON VALLEY Blues---000-000-02x---2-7-2
-
[PITCHING: Not Available
-
[BATTING: Not Available

-------------------------------------------------------
##############################################################
--------------------------------------------------------------------------------------------------------------

==============================================================

SUNDAY, JUNE 4th, 2017
===============================
===============================
##############################################################
--------------------------------------------------------------------------------------------------------------
1:30pm, At Village Park,

(Games: "3-Stars"

#1 - Jeff Parr, (BRB)

#2 - T J O'Henon, (BRB)

#3 - Alex Faust, (BRB)

-------------------------------------------------------
LA CROSSE 35er's---000-200-100---3-12-1
-
[PITCHING: Not Available
-
[BATTING: Not Available

~@~~~

BANGOR Red Birds---000-000-000---0-5-0
-
[PITCHING: (IP-H-ER-BB-SO) --- LP-Jeff Parr, [6.0-9-2-2-4]

Alex Faust, [2.0-2-1-2-0] --- Charlie Parlier, [1.0-1-0-2-1]
-
[BATTING: (AB-R-H-RBI) --- Luke Reader, 4-0-0-0;

Mike White, 4-0-1-0; Nick Ikert, 4-0-0-0;

Jared Steigerwald, 4-0-1-0; Alex Faust, 4-0-1-0;

Jack Reader, 4-0-0-0; T J O'Heron, 3-0-1-0;

Jeff Parr, 2-0-0-0; Charlie Parlier, 4-0-0-0;

Justin Ikert, 2-0-1-0; Noah Freit, 0-0-0-0;

Andrew Lookington, 0-0-0-0; TOTALS: 35-0-5-0:

------------------------------------------------------
##############################################################
--------------------------------------------------------------------------------------------------------------

==============================================================
-------------------------------------------------------

WEDNESDAY, JUNE 14th, 2017
==============================================================
-------------------------------------------------------
##############################################################
--------------------------------------------------------------------------------------------------------------
7:30pm, (7in)

(Games: "3-Stars"

#1 - Charlie Parlier, (BRB)

#2 - Mike White, (BRB)

#3 - Jared Steigerwald, (BRB)

-------------------------------------------------------
BANGOR Red Birds---000-100-0---1-6-4
-
[PITCHING: (IP-H-ER-BB-SO) --- LP-Jeff Parr, [4.0-13-7-4-1]

Charlie Parlier, [1.0-2-0-1-0] --- [1.0-1-0-1-2]
-
[BATTING: (AB-R-H-RBI) --- Ryan Robbins, 4-0-0-0;

Mike White, 3-0-2-0; Jared Stetgenwald, 3-0-1-0;

Alex Faust, 3-0-0-0; T J O'Henon, 3-0-0-0;

Charlie Parlier, 3-1-2-0; Jerod Dayton, 3-0-1-0;

Jeff Parr, 2-0-0-0; Ty Osiecki, 3-0-0-0;

TOTALS: 27-1-6-4;

~@~~~

LA CRESCENT Cardinals---240-051-x---12-16-2
-
[PITCHING: Not Available
-
[BATTING: Not Available

-------------------------------------------------------
##############################################################
--------------------------------------------------------------------------------------------------------------

==============================================================

SUNDAY, JUNE 11th, 2017

--------------------------------------------------------------------------------------------------------------
1:30pm, LANSING Mudcats, [-pppd-] @ BANGOR Red Birds, [-ppd-]
-------------------------------------------------------
3:30pm, LANSING Mudcats, [-ppd-] @ BANGOR Red Birds, [-ppd-]
--------------------------------------------------------------------------------------------------------------

==============================================================

SUNDAY, JUNE 18th, 2017 --- "Father's Day"
===============================
===============================
--------------------------------------------------------------------------------------------------------------
##############################################################
-------------------------------------------------------
4:30pm, At Norwalk Field,

(Games: "3-Stars"

#1 - Andrew Parr, (BRB)

#2 - Jared Steigerwald, (BRB)

#3 - Mike White, (BRB)

-------------------------------------------------------
BANGOR Red Birds---000-054-000---9-13-5
-
[PITCHING: (IP-H-ER-BB-SO) --- LP-Andrew Parr, [6.0-4-3-5-3]

Alex Faust, [2.2-6-2-3-2]
-
[BATTING: (AB-R-H-RBI) --- Mike White, 6-2-3-0;

Jack Reader, 4-1-0-0; Jared Steigerwald, 4-1-2-4;

Alex Faust, 5-1-3-0; T J O'Heron, 3-1-1-2;

Justin Ikert, 5-0-1-0; Andrew Parr, 4-0-3-3;

Jeff Parr, 4-0-0-0; Alex Salling, 4-0-0-0;

TOTALS: 39-9-13-5;

~@~~~

NORWALK Knights---100-020-241---10-10-1
-
[PITCHING: Not Available
-
[BATTING: Not Available

-------------------------------------------------------
##############################################################
--------------------------------------------------------------------------------------------------------------

==============================================================

SUNDAY, JUNE 25th, 2017
===============================
===============================
--------------------------------------------------------------------------------------------------------------
##############################################################
-------------------------------------------------------
1:30pm, At Village Park,

(Games: "3-Stars"

#1 - Andrew Parr, (BRB)

#2 - Eric Ulry, (BRB)

#3 - Mike White, (BRB)

-------------------------------------------------------
SPARTA Miller---000-131-104---10-12-0
-
[PITCHING: Not Available
-
[BATTING: Not Available

~@~~~

BANGOR Red Birds---000-000-000---0-3-4
-
[PITCHING: (IP-H-ER-BB-SO) --- LP-Andrew Parr, [5.2-7-4-4-5]

Eric Ulry, [3.0-5-4-4-1] - Alex Faust, [0.1-0-0-0-0]
-
[BATTING: (AB-R-H-RBI) --- Mike White, 3-0-1-0;

Jack Reader, 4-0-0-0; Jared Steigerwald, 4-0-0-0;

Alex Faust, 3-0-0-0; Andrew Parr, 2-0-1-0;

T J O'Heron, 2-0-0-0; Alex Salling, 2-0-0-0;

Eric Ulry, 3-0-1-0; Jeff Parr, 2-0-0-0;

Ben Guzy, 1-0-0-0; Dylan Scharping, 1-0-0-0;

Quetin Strand, 1-0-0-0; TOTALS: 28-0-3-4;

-------------------------------------------------------
##############################################################
--------------------------------------------------------------------------------------------------------------

==============================================================

FRIDAY, JUNE 30th, 2017
===============================
===============================
--------------------------------------------------------------------------------------------------------------
##############################################################
-------------------------------------------------------
7:30pm, At Stodderd Park,

(Games: "3-Stars"

#1 - Charlie Parlier, (BRB)

#2 -Alex Salling, (BRB)

#3 - Jeff Parr, (BRB)

-------------------------------------------------------
BANGOR Red Birds---011-001-000---3-11-0
-
[PITCHING: (IP-H-ER-BB-SO) --- LP-Jeff Parr, [8.0-9-7-6-1]
-
[BATTING: (AB-R-H-RBI) --- Mike White, 4-1-1-0;

Charlie Parlier, 5-0-4-0; Jeff Parr, 3-0-1-0;

T J O'heron, 5-0-0-0; Justin Ikert, 3-1-1-0;

Alex Salling, 5-0-2-0; Andrew Lockington, 3-0-0-0;

Ben Guzy, 5-1-1-0; Alex Guzy, 4-0-1-0;

Quentin Strand, 2-0-0-0; Andy Sanchez, 1-0-0-0;

TOTALS: 40-3-11-0;

~@~~~

LA CROSSE 35er's---011-300-20x---7-9-5
-
[PITCHING: Not Available
-
[BATTING: Not Available

-------------------------------------------------------
##############################################################

==============================================================

SATURDAY, JULY 8th, 2017

--------------------------------------------------------------------------------------------------------------
##############################################################
-------------------------------------------------------
6:30pm, At Village Park,

(Games: "3-Stars"

#1 - Jeff Parr, (BRB)

#2 - Charlie Parlier, (BRB)

#3 - Justin Ikert, (BRB)

-------------------------------------------------------
MAUSTON Axemen---000-000-001---1-8-1
-
PITCHING: Not Available
-
[BATTING: Not Available

~@~~~

BANGOR Red Birds---121-000-00x---4-7-1
-
[PITCHING: (IP-H-ER-BB-SO) --- WP-Jeff Parr, [9.0-0-1-2-8]
-
[BATTING: (AB-R-H-RBI) --- Luke Reader, 3-0-0-0;

Charlie Parlier, 4-0-2-2; Nick Ikert, 3-1-1-1;

Jared Steigerwald, 4-0-1-0; Jeff Parr, 3-1-1-0;

T J O'Heron, 3-0-0-0; Justin Ikert, 4-1-2-1;

Mike White, 3-0-0-0; Bailey Langrehr, 2-0-0-0;

Quentin Strand, 2-0-0-0; TOTALS: 31-3-7-1;

-------------------------------------------------------
##############################################################
--------------------------------------------------------------------------------------------------------------

==============================================================

SUNDAY, JULY 9th, 2017

--------------------------------------------------------------------------------------------------------------
1:30pm, LA CRESCENT Cardinals, [--] @ BANGOR Red Birds, [--]
--------------------------------------------------------------------------------------------------------------

==============================================================

WEDNESDAY, JULY 19th, 2017

--------------------------------------------------------------------------------------------------------------
7:00pm, BANGOR Red Birds, [--] @ SPARTA Miller, [--]
--------------------------------------------------------------------------------------------------------------

==============================================================

SATURDAY, JULY 22nd, 2017

--------------------------------------------------------------------------------------------------------------
7:00pm, VIROQUA Sox, [--] @ BANGOR Red Birds, [--]
--------------------------------------------------------------------------------------------------------------

==============================================================

SUNDAY, JULY 23rd, 2017

--------------------------------------------------------------------------------------------------------------
4:30pm, NORWALK Knights, [--] @ BANGOR Red Birds, [--]
--------------------------------------------------------------------------------------------------------------


==============================================================

WEDNESDAY, JULY 26th, 2017

--------------------------------------------------------------------------------------------------------------
7:00pm, CHASEBURG-COON VALLEY Blues, [--] @ BANGOR Red Birds, [--]
--------------------------------------------------------------------------------------------------------------

==============================================================

TUESDAY, JULY 27th, 2-17

--------------------------------------------------------------------------------------------------------------
7:30pm, VIROQUA Sox, [--] @ SPARTA Miller, [--]
--------------------------------------------------------------------------------------------------------------

==============================================================

SATURDAY, JULY 29th, 2017

--------------------------------------------------------------------------------------------------------------
1:30pm, BANGOR Red Birds, [--] @ MAUSTON Axemen, [--]
--------------------------------------------------------------------------------------------------------------

==============================================================

____________________

End of Regular Season
____________________


==============================================================


==============================================================
=
MISSISSIPPI VALLEY BASEBALL LEAGUE

"HISTORY"
=
==============================================================

2016, MISSISSIPPI VALLEY BASEBALL League,

"FINAL" Standings,

------W--L---.PCT---TEAMS
-----13---2---.867-----CHASEBURG-COON VALLEY Blues
-----13---2---.867-----SPARTA Miller
-----10---4---.714-----LA CROSSE 35er's
------9---4---.692-----LA CRESENT Cardinals
------6---8---.429-----BANGOR Red Birds
------4---8---.333-----LANSING Mudcats
------4--10---.286-----VIROQUA Sox
------2--11---.154-----MAUSTON Axemen
------1--13---.071-----NORWALK Knights

==============================================================

2015, MISSISSIPPI VALLEY BASEBALL League,

"FINAL" Standings,

------W--L---.PCT----TEAMS
-----18---2---.900-----CHASEBURG-COON VALLEY Blues
-----17---3---.850-----SPARTA Miller
-----15---5---.750-----LA CRESCENT Cardinals
-----11---9---.550-----LANSING Mudcats
------8---9---.471-----MAUSTON Axemen
------9--11---.450-----VIROQUA Sox
------6--10---.375-----LA CROSSE 35er's
------6--14---.300-----ONALASKA Twins
------6--14---.300-----BANGOR Red Birds
------4--14---.222-----NORWALK Knights
------3--13---.200-----WISCONSIN DELLS Rivermen

==============================================================

2014, MISSISSIPPI VALLEY BASEBALL League,

"FINAL" Standings

------W--L---.PCT----TEAMS
-----16---2---.889-----CHASEBURG-COON VALLEY Blues
-----15---3---.833-----SPARTA Miller
-----13---5---.722-----LA CROSSE 35er's
-----12---6---.667-----LA CRESCENT Cardinals
-----10---8---.556-----ONALASKA Twins
------4--11---.267-----VIROQUA sOX
------4--12---.250-----MAUSTON Axemen
------4--13---.235-----BANGOR Red Birds
------3--13---.187-----NORWALK Knights
------2--10---.167-----LANSING Mudcats

==============================================================

2013, MISSISSIPPI VALLEY BASEBALL League,

"FINAL" Standings

------W--L---.PCT----TEAMS
-----17---1---.944-----SPARTA Miller
-----15---3---.833-----LA CRESCENT Cardinals
-----13---5---.722-----CHASEBURG-COON VALLEY Blues
-----10---8---.556-----LA CROSSE 35er's
-----10---8---.556-----ONALASKA Twins
------7--11---.389-----BANGOR Red Birds
------6--12---.333-----VIROQUA Sox
------5--13---.278-----NORWALK Knights
------3--15---.167-----LANSING Mudcats
------2--16---.111-----MAUSTON Axemen

==============================================================

2012, MISSISSIPPI VALLEY LEAGUE "FINAL" Standings

------W--L---.PCT----TEAMS
-----13---1---.929-----CHASEBURG-COON VALLEY Blues
-----11---3---.786-----SPARTA Miller
------9---5---.727-----LA CROSSE 35er's
------8---6---.538-----LA CRESCENT Cardinals
------7---7---.500-----NORWALK Knights
------5---8---.385-----BANGER Redbirds
------2--10---.167-----LANSING Mudcats
------0--13---.000-----KENDALL Mustangs

==============================================================

2011, MISSISSIPPI VALLEY LEAGUE "FINAL" Standings

------W--L---.PCT----TEAMS
-----14---2---.875-----CHASEBURG-COON VALLEY Blues
-----13---3---.812-----SPARTA Miller
-----12---3---.800-----ONALASKA Athletics
------9---7---.562-----LA CRESCENT Cardinals
------8---8---.500-----LA CROSSE 35ers
------5--10---.333-----BANGOR Redbirds
------4---9---.308-----PRAIRIE du CHIEN Stormtrackers
------3--13---.187-----NORWALK Knights
------1--14---.067-----LANSING Mudcats

==============================================================

2010, MISSISSIPPI VALLEY LEAGUE "FINAL" Standings

------W--L---.PCT----TEAMS
-----10---2---.818-----SPARTA Miller
------9---3---.750-----LA CRESCENT Cardinals
------8---4---.667-----ONALASKA Athletics
------6---6---.500-----CHASEBURG-COON VALLEY Blues
------3---8---.273-----NORWALK Knights
------3---9---.250-----LANSING Mudcats
------2---9---.182-----BANGOR Redbirds

==============================================================

2009, MISSISSIPPI VALLEY LEAGUE "FINAL" Standings

------W--L---.PCT----TEAMS
-----10---2---.833-----CHASEBURG-COON VALLEY Blues
------9---2---.812-----LA CROSSE Athletics
------7---4---.636-----LA CRESCENT Cardinals
------6---5---.545-----SPARTA Miller
------4---8---.333-----BANGOR Redbirds
------3---8---.273-----NORWALK Knights
------1--11---.083-----LANSING Mudcats

==============================================================

2008, MISSISSIPPI VALLEY LEAGUE "FINAL" Standings

------W--L---.PCT----TEAMS
-----13---3---.812-----CHASEBURG-COON VALLEY Blues
-----13---3---.812-----LA CRESCENT Cardinals
-----11---5---.688-----BANGOR Redbirds
-----10---6---.625-----NORWALK Knights
-----10---6---.625-----LA CROSSE Athletics
------8---8---.500-----SPARTA Miller
------4--12---.250-----ELROY Renegades
------1--13---.071-----KENDALL Mustangs
------0--14---.000-----BLACK RIVER FALLS Mudcats

==============================================================

2007, MISSISSIPPI VALLEY LEAGUE "FINAL" Standings

------W--L---.PCT----TEAMS
-----15---3---.833-----CHASEBURG-COON VALLEY Blues
-----15---3---.833-----LA CROSSE Athletics
-----14---4---.778-----LA CRESCENT Cardinals
-----10---8---.556-----NORWALK Knights
-----10---8---.556-----SPARTA Miller
------9---9---.500-----BANGOR Redbirds
------6--12---.333-----BLACK RIVER FALLS Mudcats
------4--13---.235-----LA FARGE/ROCKTON Tabs
------3--14---.176-----KENDALL Mustangs
------3--15---.167-----ELROY Renegades

==============================================================

2006, MISSISSIPPI VALLEY LEAGUE "FINAL" Standings

------W--L---.PCT----TEAMS
-----11---3---.786-----SPARTA Miller
-----11---3---.786-----BANGOR Redbirds
------9---5---.643-----CHASEBURG-COON VALLEY Blues
------8---6---.571-----LA CRESCENT Cardinals
------7---7---.500-----BLACK RIVER FALLS Mudcats
------5---9---.357-----NORWALK Knights
------4--10---.286-----KENDALL Mustangs
------1--13---.071-----ROCKTON Tabs

==============================================================

2005, MISSISSIPPI VALLEY LEAGUE "FINAL" Standings

------W--L---.PCT----TEAMS
-----16---0--1.000-----SPARTA Miller
-----12---4---.750-----LA CRESCENT Cardinals
-----10---6---.625-----CHASEBURG-COON VALLEY Blues
------9---7---.563-----NORWALK Knights
------7---9---.438-----BANGOR Redbirds
------6--10---.375-----MAUSTON Red Sox
------5--11---.313-----KENDALL Mustangs
------5--11---.313-----WINONA Chiefs
------0--16---.000-----ROCKTON Tabs

==============================================================

2004, MISSISSIPPI VALLEY LEAGUE "FINAL" Standings

------W--L---.PCT----TEAMS
-----13---2---.887-----LA CROSSE Titans
-----11---5---.688-----NORWALK Knights
-----11---5---.688-----BANGOR Redbirds
-----10---5---.667-----CHASEBURG-COON VALLEY Blues
------8---8---.500-----SPARTA Miller
------7---9---.438-----LA CRESCENT Cardinals
------4--12---.250-----MAUSTON Red Sox
------3--13---.188-----KENDALL Mustangs
------3--13---.188-----ROCKTON Tabs

==============================================================

--------------------------------------------------------------------------------------------------------------
Jack Sprecher, aka "Jack O' Diamonds"

ALGOMA City Baseball Historian,

"101 Years of ALGOMA BASEBALL"

www.leaguelineup.com/algomaguins,

920-304-2211
-------------------------------------------------------
"Have Game Will Travel"
-
"It all adds up to be 16 baseball seasons,

and a total of 621 games,

with an average of 40 games each year.

Thanks, all who made it all fun. Jack
--------------------------------------------------------------------------------------------------------------

==============================================================


Venue Information and Directions


Click here for more information