LEAGUES, SCHEDULES, STANDINGS, RESULTS

Subscribe to our Newsletter
Back to Previous Page

W.B.A. UPPER-13 BASEBALL LEAGUE

Date(s):   5/1/2015 - 9/6/2015
Contact Info:

920-304-2211
General Information .
==============================================================

--------------------2017,

UPPER-13 BASEBALL LEAGUE,

of the WISCONSIN BASEBALL ASSOCIATION,

==============================================================

--------------------------------------------------------------------------------------------------------------
(Last Updated: July 22nd, 2017)
-------------------------------------------------------
(920-304-2211)
-------------------------------------------------------
(wkrn1240@gmail.com)
--------------------------------------------------------------------------------------------------------------

___________________________________

Teams, VENUES:
-
DULUTH-SUPERIOR, Morrie Arnovich Field, Superior
ASHLAND, Pufall Field
WASHBURN, Ball Field
CHEQUAMEGON, High School Field, Park Falls
PORT WING, Anderson-Samuelson Field
___________________________________

==============================================================


2017, UPPER-13 BASEBALL LEAGUE,

"Standings"

------W--L---.PCT----TEAMS
------6---1---.857--------CHEQUAMEGON Cardinals
------5---1---.833--------DULUTH-SUPERIOR Dukes
------3---3---.500--------ASHLAND Merchants
------4---5---.444--------WASHBURN Lumberjacks
------0---8---.000--------PORT WING Boilers

[12 Game Season]

--------------------------------------------------------------------------------------------------------------

2017, SCHEDULE & RESULTS

--------------------------------------------------------------------------------------------------------------

==============================================================

SUNDAY, MAY 29th, 2017

--------------------------------------------------------------------------------------------------------------
1:30pm, DULUTH-SUPERIOR Dukes, [-4-4-6-] @ CHEQUAMEGON Cardinals, [-7-5-0-]
--------------------------------------------------------------------------------------------------------------
1:30pm, ASHLAND Merchants, [-330-808-0---22-15-0-] @ PORT WING Boilers, [-000-010-0---1-7-5-]
--------------------------------------------------------------------------------------------------------------

==============================================================

SUNDAY, JUNE 5th, 2017

--------------------------------------------------------------------------------------------------------------
1:00pm, PORT WING Boilers, [-PPD-] @ DULUTH-SUPERION Dukes, [-PPD-]
--------------------------------------------------------------------------------------------------------------
3:30pm, PORT WING Boilers, [-PPD-] @ DULUTH-SUPERION Dukes, [-PPD-]
--------------------------------------------------------------------------------------------------------------
1:00pm, ASHLAND Merchants, [-PPD-] @ WASHBURN Lumberjacks, [-PPD-]
--------------------------------------------------------------------------------------------------------------
3:30pm, ASHLAND Merchants, [-PPD-] @ WASHBURN Lumberjacks, [-PPD-]
--------------------------------------------------------------------------------------------------------------

==============================================================

SUNDAY, JUNE 12th, 2017

--------------------------------------------------------------------------------------------------------------
1:00pm, WASHBURN Lumberjacks, [-0-] @ PORT WING Boilers, [-3-]
--------------------------------------------------------------------------------------------------------------
3:30pm, WASHBURN Lumberjacks, [-0-] @ PORT WING Boilers, [-2-]
--------------------------------------------------------------------------------------------------------------

==============================================================

SUNDAY, JUNE 19th, 2017 ~~~ "Father's Day"

--------------------------------------------------------------------------------------------------------------
1:30pm, ASHLAND Merchants, [-] @ DULUTH-SUPERIOR Dukes, [-]
--------------------------------------------------------------------------------------------------------------
1:30pm, CHEQUAMEGON Cardinals, [-] @ WASHBURN Lumberjacks, [-]
--------------------------------------------------------------------------------------------------------------

==============================================================

SUNDAY, JUNE 26th, 2017

--------------------------------------------------------------------------------------------------------------
1:30pm, WASHBURN Lumberjacks, [-] @ DULUTH-SUPERIOR Dukes, [-]
--------------------------------------------------------------------------------------------------------------
1:30pm, PORT WING Boilers, [-] @ CHEQUAMEGON Cardinals, [-]
--------------------------------------------------------------------------------------------------------------

==============================================================

SUNDAY, JULY 3rd, 2017

--------------------------------------------------------------------------------------------------------------
1;30pm, DUTUTH-SUPERIOR Dukes, [-] @ PORT WING Boilers, [-]
--------------------------------------------------------------------------------------------------------------

==============================================================

MONDAY, JULY 4th, 2017 --- "Number, 241"

--------------------------------------------------------------------------------------------------------------
2:00pm, WASHBURN Lumberjacks, [-] @ ASHLAND Merchants, [-]
--------------------------------------------------------------------------------------------------------------

==============================================================

SUNDAY, JULY 10th, 2017

--------------------------------------------------------------------------------------------------------------
1:30pm, CHEQUAMEGON Cardinals, [-] @ ASHLAND Merchants, [-]
--------------------------------------------------------------------------------------------------------------
1:30pm, PORT WING Boilers, [-] @ WASHBURN Lumberjacks, [-]
--------------------------------------------------------------------------------------------------------------

==============================================================

SUNDAY, JULY 17th, 2017

--------------------------------------------------------------------------------------------------------------
1:00pm, DULUTH-SUPERIOR Dukes, [-] @ WASHBURN Lumberjacks, [-]
--------------------------------------------------------------------------------------------------------------
3:30pm, DULUTH-SUPERIOR Dukes, [-] @ WASHBURN Lumberjacks, [-]
--------------------------------------------------------------------------------------------------------------
1:00pm, CHEQUAMEGON Cardinals. [-] @ PORT WING Boilers, [-]
--------------------------------------------------------------------------------------------------------------
3;30pm, CHEQUAMEGON Cardinals, [-] @ PORT WING Boilers, [-]
--------------------------------------------------------------------------------------------------------------

==============================================================

SUNDAY, JULY 24th, 2017

--------------------------------------------------------------------------------------------------------------
1:00pm, DULUTH-SUPERIOR Dukes, [-] @ ASHLAND Merchants, [-]
--------------------------------------------------------------------------------------------------------------
3:30pm, DULUTH-SUPERIOR Dukes, [-] @ ASHLAND Merchants, [-]
--------------------------------------------------------------------------------------------------------------
1:00pm, WASHBURN Lumberjacks, [-] @ CHEQUAMEGON Cardinals, [-]
--------------------------------------------------------------------------------------------------------------
3:30pm, WASHBURN Lumberjacks, [-] @ CHEQUAMEGON Cardinals, [-]
--------------------------------------------------------------------------------------------------------------

==============================================================

SUNDAY, JULY 31st, 2017

--------------------------------------------------------------------------------------------------------------
1:00pm, CHEQUAMEGON Cardinals, [-] @ DULUTH-SUPERIOR Dukes, [-]
--------------------------------------------------------------------------------------------------------------
3:30pm, CHEQUAMEGON Cardinals, [-] @ DULUTH-SUPERIOR Dukes, [-]
--------------------------------------------------------------------------------------------------------------
1:00pm, PORT WING Boilers, [-] @ ASHLAND Merchants, [-]
--------------------------------------------------------------------------------------------------------------
3:30pm, PORT WING Boilers, [-] @ ASHLAND Mercharns, [-]
--------------------------------------------------------------------------------------------------------------

______________________

End of Regular Season
______________________


==============================================================

==============================================================
=
W.B.A. UPPER-13 BASEBALL League, ~ "HISTORY"
-
Home of the late great OULU Blue Jays baseball team. ...Jack
=
==============================================================

2015, UPPER-13 BASEBALL League, "FINAL" Standings

------W--L---.PCT----TEAMS
-----11---1---.917------DULUTH-SUPERIOR Dukes
------7---5---.582------WASHBURN Lumberjacks
------6---6---.500------CHEQUAMEGON Cardinals
------6---6---.500------ASHLAND Merchants
------0--12---.000------PORT WING Boilers

==============================================================

2014, UPPER-13 BASEBALL League, "FINAL" Standings

------W--L---.PCT----TEAMS
-----10---2---.833------ASHLAND Merchants
------7---3---.700------DULUTH-SUPERIOR Dukes
------4---4---.444------CHEQUAMEGON Cardinals
------3---8---.273------ASHLAND Lumberjacks
------3---9---.250------PORT WING Boilers

==============================================================

2013, UPPER-13 BASEBALL League, "FINAL" Standings

------W--L---.PCT----TEAMS
------9---3---.750--------ASHLAND Merchants
------9---3---.750--------DULUTH Padres
------6---6---.500--------ASHLAND Lumberjacks
------5---7---.417--------MARENISCO Milltowners
------1--11---.083--------PORT WINGS Boilers

==============================================================

2012, UPPER-13 BASEBALL League, "FINAL" Standings

------W--L---.PCT----TEAMS
-----10---1---.909-------SUPERIOR Lakers
-----11---3---.786-------TWIN PORTS North Stars
------8---6---.571-------DULUTH Padres
------8---6---.571-------ASHLAND C&S DESIGN Protractors
------6---7---.462-------ASHLAND Merchants
------4---8---.333-------MARENISCO Milltowners
------4--10---.286-------PORT WING Boilers
------2--12---.143-------IRONWOOD Rangers

==============================================================

2011, UPPER-13 BASEBALL League, "FINAL" Standings

------W--L---.PCT----TEAMS
-----14---0--1.000-------SUPERIOR Lakers
------9---5---.643--------TWIN PORTS North Stars
------8---6---.571--------OULU Blue Jays
------8---6---.571--------ASHLAND Merchants
------8---6---.571--------ASHLAND C&S DESIGN Protractors
------5---9---.357---------DULUTH Padres
------3--11---.214--------MARENISCO Milltowners
------1--13---.071--------PORT WING Boilers

==============================================================

2010, UPPER-13 BASEBALL League, "FINAL" Standings

------W--L---.PCT----TEAMS
-----10---2---.833--------SUPERIOR Lakers
------9---2---.818--------ASHLAND Merchants
------9---3---.750--------OULU Blue Jays
------7---4---.636--------ASHLAND C&S DESIGN Protractors
------5---7---.417--------PROCTOR Padres (Duluth)
------5---7---.417--------BAYSIDE Vipers
------4---7---.364--------IRON CITY Miners of Mellen
------2--10---.167--------PORT WING Boilers
------1--10---.091--------MARENISCO Milltowners

==============================================================

2009, UPPER-13 BASEBALL League, "FINAL" Standings

------W--L---.PCT----TEAMS
-----10---2---.833--------OULU Blue Jays
-----10---2---.833--------SUPERIOR Lakers
------8---4---.667---------BAYSIDE Vipers
------7---5---.583---------ASHLAND Merchants
------5---7---.417---------ASHLAND C&S DESIGN Protractors
------1--11---.083--------PROCTOR Padres (Duluth)
------1--11---.083--------PORT WING Boilers

==============================================================

2008, UPPER-13 BASEBALL League, "FINAL" Standings

------W--L---.PCT----TEAMS
-----11---1---.917--------OULU Blue Jays
-----10---2---.833--------ASHLAND Merchants
------7---5---.583--------BAYSIDE Vipers
------7---5---.583--------PROCTOR Padres
------5---7---.417--------SUPERIOR Lakers
------2--10---.167-------ASHLAND C&S DESIGN Protractors
------0--12---.000-------PORT WING Boilers

==============================================================

2007, UPPER-13 BASEBALL League, "FINAL" Standings

---------W--L---.PCT-----TEAMS
--------16---1---.941---------BAYSIDE Vipers
--------12---6---.667---------ASHLAND Merchants
--------12---6---.667---------OULU Blue Jays
---------8---9---.471---------SUPERIOR Lakers
---------8--10---.444---------ASHLAND C&S DESIGN Protractors
---------4--14---.222---------PROCTOR Padres
---------2--16---.111---------PORT WING Boilers

==============================================================

2006, UPPER-13 BASEBALL LEAGUE "FINAL" Standings

NEED Standings! jack1230blues@charter,net

==============================================================

2005, UPPER-13 BASEBALL League, OULU Blue Jays, Champions

==============================================================

2004, UPPER-13 BASEBALL League, OULU Blue Jays, Champions

==============================================================

2003, UPPER-13 BASEBALL League, "FINAL" Standings

------W--L---.PCT----TEAMS
-----11---1---.917--------OULU Blue Jays
------8---4---.667--------ST. CROIX Ravens of Solon Springs
------7---5---.583--------BAYSIDE Vipers
------7---5---.583--------MELLEN Expos
------5---7---.417--------ASHLAND C&S DESIGN Protractors
------4---8---.333--------ASHLAND Merchants
------0--12---.000--------BUTERNUT Bulldogs

==============================================================

2002, UPPER-13 BASEBALL League, OULU Blue Jays, Champions

==============================================================

2001, UPPER-13 BASEBALL League, OULU Blue Jays, Champions

==============================================================

2000, UPPER-13 BASEBALL League, OULU Blue Jays, Champions

==============================================================

1999, UPPER-13 BASEBALL League, OULU Blue Jays, Champions

==============================================================

1998, UPPER-13 BASEBALL League, OULU Blue Jays, Champions

==============================================================

--------------------------------------------------------------------------------------------------------------
Jack Sprecher, aka "Jack O' Diamonds"

ALGOMA CITY Baseball Historian,

"100 Years Of ALGOMA BASEBALL"

www.leaguelineup.com/algomaguins
-
920-304-2211
-
wkrn1240@gmail.com
-------------------------------------------------------
"Have Game Will Travel"
-
It all adds up to be 17 baseball seasons,

and a total of 625 games,

with an average of 38 games each year.

Thank, all who made it all fun. Jack
---------------------------------------------------------------------------------------------------------------------------------------------------------------------

==============================================================

Venue Information and Directions