LEAGUES, SCHEDULES, STANDINGS, RESULTS

Subscribe to our Newsletter
Back to Previous Page

2018, BADGER AMATEUR BASEBALL ASSOCIATION, South-Central

Date(s):   5/1/2015 - 9/5/2015
Contact Info:

General Information .
==============================================================

2018

B.A.B.A. "SOUTH-CENTRAL"

==============================================================

BADGER AMATEUR BASEBALL ASSOCIATION

SOUTH-CENTRAL Division

1946 - 2018

==============================================================

-------------------------------------------------------
(Last Updated: May 21st, 2018)
-------------------------------------------------------

==============================================================

2017, B.A.B.A. SOUTH-CENTRAL Division, "FINAL" Standings

-------------------------------------------------------

------W--L---.PCT----TEAMS
-----11---1---.917-------WAUPACA Lakemen
------9---3---.750-------SCANDINAVIA Vikings
------6---6---.500-------PLOVER Pterodactyls
------5---7---.417-------WEYMONT White Bass
------5---7---.417-------NEW LONDON Brews
------0--12---.000-------OMRO Rivermen

[12 Game Season]

==============================================================

-------------------------------------------------------

2018, SCHEDULE & RESULTS

-------------------------------------------------------

==============================================================

SUNDAY, MAY 6th, 2018

-------------------------------------------------------
1:30pm, OMRO Rivermen, [-8-] @ WEYMONT White Bass, [-3-]
-------------------------------------------------------
1:30pm, PLOVER Pterodactyls, [-0-] @ WAUPACA Lakemen, [-4-]
-------------------------------------------------------
1:30pm, SCANDINAVIA Vikings, [-7-] @ NEW LONDON Brews, [-5-]
-------------------------------------------------------

===============================================================

FRIDAY, MAY 11th, 2018

---------------------------------------------------------------------------------------------------------------------------
7:30pm, PLOVER Pterodactyls, [-Rain-] @ NEW LONDON Brews, [-Rain-]
---------------------------------------------------------------------------------------------------------------------------

==============================================================

SUNDAY, MAY 13th, 2018 --- "Mother's Day"

-------------------------------------------------------------
1:30pm, WEYMONT White Bass, [-2-] @ SCANDIAVIA Vikings, [-6-]
-------------------------------------------------------
1:30pm, WAUPACA Lakemen, [-8-] @ OMRO Rivermen, [-4-]
--------------------------------------------------------------

===============================================================

FRIDAY, MAY 18th, 2018

--------------------------------------------------------------
7:30pm, WEYMONT White Bass, [-2-] @ PLOVER Pterodactyls, [-17-]
--------------------------------------------------------------


==============================================================

SUNDAY, MAY 20tht, 2018

--------------------------------------------------------------
1:30pm, SCANDINAVIA Vikings, [-11-] @ OMRO Rivermen, [-0-]
-------------------------------------------------------------
1:30pm, NEW LONDON Brews, [-0-] @ WAUPACA Lakemen, [-10-]
--------------------------------------------------------------

==============================================================

SUNDAY, MAY 27th, 2018

-------------------------------------------------------
Used for Make-Up Games, and a Bye
-------------------------------------------------------

==============================================================

SUNDAY, JUNE 3rd, 2018

-------------------------------------------------------
1:30pm, WEYMONT White Bass, [-6-] @ NEW LONDON Brews, [-1-]
-------------------------------------------------------
1:30pm, SCANDINAVIA Vikings, [-0-] @ WAUPACA Lakemen, [-2-]
-------------------------------------------------------
1:30pm, OMRO Rivermen, [-1-] @ PLOVER Ptenodactyls, [-10-]
-------------------------------------------------------------


==============================================================

SUNDAY, JUNE 10th, 2018

-------------------------------------------------------
1:30pm, NEW LONDON Brews, [-7-] @ OMRO Rivermen, [-8-]
-------------------------------------------------------
1:30pm, SCANDINAVIA Vikings, [-8-] @ PLOVER Pterodactyls, [-5-]
--------------------------------------------------------------
1:30pm, WAUPACA
L, [-4-] @ WEYMONT Whire Bass, [-1-] ~~ 18in.
--------------------------------------------------------------------------------------------------------------

==============================================================

SUNDAY, JUNE 17th, 2018 --- "Father's Day"

--------------------------------------------------------------------------------------------------------------
1:30pm, NEW LONDON Brews, [-0-] @ SCANDINAVIA Vikings, [-8-]
--------------------------------------------------------------------------------------------------------------
1:30pm, WEYMONT White Bass, [-5-] @ OMRO Rivermen, [-3-]
--------------------------------------------------------------------------------------------------------------
1:30pm, WAUPACA Lakemen, [-3-] @ PLOVER Pterodactyls, [-1-]
--------------------------------------------------------------------------------------------------------------

====================================================

FRIDAY, JUNE 22nd, 2018

--------------------------------------------------------------
7:30pm, NEW LONDON Brers, [-0-] @ PLOVER Pterodactyles, [-9-] (For-Frit)]
--------------------------------------------------------------


====================================================

SUNDAY, JUNE 24th, 2018

--------------------------------------------------------------
1:30pm, OMRO Rivermen, [-0-] @ WAUPACA Lakemen, [-10-] ~~~ [7in]
--------------------------------------------------------------
1:30pm, SCANDINAVIA Vikings, [-13-] @ WEYMORT White Bass, [-3-]
--------------------------------------------------------------



==============================================================

SUNDAY, JUNE

--------------------------------------------------------------------------------------------------------------
1:30pm,
--------------------------------------------------------------------------------------------------------------
1:30pm,
--------------------------------------------------------------------------------------------------------------
1:30pm,
------------------------------------------------------------

==============================================================

SUNDAY, JULY 2nd, 2018

--------------------------------------------------------------------------------------------------------------
Used for Make-Up Games, and a Bye
--------------------------------------------------------------------------------------------------------------

==============================================================

SUNDAY, JULY 8th, 2018

--------------------------------------------------------------------------------------------------------------
1:30pm,
--------------------------------------------------------------------------------------------------------------
1:30pm,
--------------------------------------------------------------------------------------------------------------
1:30pm,
--------------------------------------------------------------------------------------------------------------

==============================================================

FRIDAY, JULY th, 2018

--------------------------------------------------------------------------------------------------------------

--------------------------------------------------------------------------------------------------------------

--------------------------------------------------------------------------------------------------------------

==============================================================

SUNDAY, JULY 15th, 2018

--------------------------------------------------------------------------------------------------------------
1:30pm,
--------------------------------------------------------------------------------------------------------------

==============================================================

SUNDAY, JULY 22nd, 2018

--------------------------------------------------------------------------------------------------------------
1:30pm,
--------------------------------------------------------------------------------------------------------------
1:30pm,
--------------------------------------------------------------------------------------------------------------
1:30pm,
--------------------------------------------------------------------------------------------------------------

==============================================================

SUNDAY, JULY 29th, 2018

--------------------------------------------------------------------------------------------------------------
1:30pm,
--------------------------------------------------------------------------------------------------------------
1:30pm,
--------------------------------------------------------------------------------------------------------------
1:30pm,
--------------------------------------------------------------------------------------------------------------

==============================================================

SUNDAY, AUGUST 5th, 2018

--------------------------------------------------------------------------------------------------------------
1:30pm,
--------------------------------------------------------------------------------------------------------------
1:30pm,
-------------------------------------------------------------
1:30pm,
--------------------------------------------------------------

-

-------------------------------------------------------

--------------------------------------------------------------------------------------------------------------

__________________

End of Regular Season
__________________

==============================================================

BIRNAMWOOD Kings, [-2-] vs LITTLE FALLS Loggers, [-1-]
--------------------------------------------------------------------------------------------------------------
CLINTONVILLE A's, [-1-] vs WAUPACA Lakemen, [-2-]
--------------------------------------------------------------------------------------------------------------


==============================================================

SUNDAY, SEPTEMBER 3rd, 2017

--------------------------------------------------------------------------------------------------------------

2017, B.A.B.A. Grand Champion, "Game"

--------------------------------------------------------------------------------------------------------------2:00pm,
-
NORTH Division, BIRNAMWOOD Kings, [--]

~@~~~

SOUTH/CENTRAL Division, WAUPACA Lakemen, [--]
--------------------------------------------------------------------------------------------------------------


==============================================================
=
==============================================================

B.A.B.A. SOUTH-CENTRAL Division, "HISTORY"

==============================================================

2016, B.A.B.A. SOUTH-CENTRAL Division,

"FINAL" Standings

------W--L---.PCT----TEAMS
-----10---1---.909------WAUPACA Lakemen
-----10---2---.833------PLOVER Pterodactyls
------7---4---.636------SCANDINAVIA Vikings
------5---6---.455------WEYMONT White Bass
------4---7---.364------LANARK Lions
------2---9---.182------NEW LONDON Merchants
------1--10---.090-----OMRO Rivermen

==============================================================

2015, B.A.B.A. SOUTH-CENTRAL Division, "FINAL" Standings

------W--L---.PCT----TEAMS
-----11---1---.909------WAUPACA Lakemen
-----10---2---.818------PLOVER Pterodactyls
------9---3---.750------SCANDINAVIA Vikings
------6---6---.500------WEY-MONT White Bass
------3---8---.272------NEW LONDON Merchants
------1--10---.090------LANARK Lions
------1--11---.083------MANAWA Spurs

==============================================================

2014, B.A.B.A. SOUTH-CENTRAL Division, "FINAL" Standings

------W--L---.PCT----TEAMS
-----13---1---.929------PLOVER Pterodactyls
-----12---2---.857------WAUPACA Lakemen
------8---6---.571------WEY-MONT White Bass
------7---7---.500------SCANDINAVIA Vikings
------6---8---.429------ROSHOLT Renegades
------4--10---.286------LANARK Lions
------4--10---.286------NEW LONDON Merchants
------2--12---.143------MANAWA Spurs

==============================================================

2013, B.A.B.A. SOUTH-CENTRAL Division, "FINAL" Stangings

------W--L---.PCT----TEAMS
-----12---2---.857-------WAUPACA Lakemen
------9---5---.643-------PLOVER Pterodactyls
------9---5---.643-------WEY-MONT White Bass
------8---6---.571-------NEW LONDON Merchants
------7---7---.500-------ROSHOLT Renegades
------7---7---.500-------SCANDINAVIA Vikings
------2--12---.143-------LANARK Lions
------2--12---.143-------MANAWA Spurs

==============================================================

2012, B.A.B.A. SOUTH-CENTRAL Division, "FINAL" Standings

------W--L---.PCT----TEAMS
-----10---4---.714-------PLOVER Pterodactyles
-----10---4---.714-------WAUPACA Lakemen
------9---5---.643-------NEW LONDON Merchants
------7---7---.500-------SCANDINAVIA Vikings
------6---8---.429-------ROSHOLT Renegades
------5---9---.357-------MANAWA Spurs
------5---9---.357-------WEY-MONT White Bass
------4--10---.286-------LANARK Lions

==============================================================

2011, B.A.B.A. SOUTH-CENTRAL Division, "FINAL" Standings

------W--L---.PCT----TEAMS
-----12---2---.846-------WAUPACA Lakemen
------9---5---.692-------NEW LONDON Merchants
------7---6---.538-------SCANDINAVIA Vikings
------7---7---.500-------WEY-MONT White Bass
------7---7---.500-------ROSHOLT Renegades
------5---8---.385-------PLOVER Pterodactyls
------4---9---.308-------MANAWA Spurs
------3--10---.231-------LANARK Lions

==============================================================

2010, B.A.B.A. SOUTH-CENTRAL Division, "FINAL" Standings

------W--L---.PCT----TEAMS
-----11---3---.786-------PLOVER Pterodactyls
-----10---4---.714-------WAUPACA Lakemen
------8---6---.571-------SCANDINAVIA Vikings
------7---7---.500-------ROSHOLT Renegades
------7---7---.500-------WEY-MONT White Bass
------5---9---.357-------LANARK Lions
------5---9---.357-------MANAWA Spurs
------3--11---.214-------NEW LONDON Merchants

==============================================================

2009, B.A.B.A. SOUTH-CENTRAL Division, "FINAL" Standings

------W--L---.PCT----TEAMS
-----11---3---.786-------WAUPACA Lakemen
------9---5---.643-------PLOVER Pterodactyles
------9---5---.643-------SCANDINAVIA Vikings
------8---6---.571-------ROSHOLT Renegades
------7---7---.500-------MANAWA Spurs
------6---8---.429-------NEW LONDON Merchants
------5---9---.357-------LANARK Lions
------1--13---.071------WEY-MONT White Bass

==============================================================

2008, B.A.B.A. SOUTH-CENTRAL Division, "FINAL" Standings

------W--L---.PCT----TEAMS
------9---3---.750-------PLOVER Pterodactyls
------9---3---.750-------WAUPACA Lakemen
------6---6---.500-------SCANDINAVIA Vikings
------5---7---.417-------NEW LONDON Merchants
------5---7---.417-------MANAWA Spurs
------5---7---.417-------ROSHOLT Renegades
------3---9---.250-------LANARK Lions

==============================================================

2007, B.A.B.A. SOUTH-CENTRAL Division, "FINAL" Standings

------W--L---.PCT----TEAMS
------9---3---.750-------PLOVER Pterodactyls
------8---4---.667-------WAUPACA Lakemen
------7---5---.583-------MANAWA Spurs
------7---5---.583-------SCANDINAVIA Vikings
------5---7---.417-------LANARK Lions
------5---7---.417-------NEW LONDON Merchants
------1--11---.083-------OMRO River Rats

==============================================================

2006, B.A.B.A. SOUTH-CENTRAL Division, "FINAL" Standings

------W--L---.PCT----TEAMS
-----11---3---.786------WAUPACA Lakemen
-----11---3---.786------PLOVER Pterodactyles
------9---5---.642------SCANDINAVIA Vikings
------9---6---.600------MANAWA Spurs
------8---7---.533------NEW LONDON Merchants
------5---9---.357------OMRO River Rats
------3--11---.214------LANARK Lions
------1--13---.071------BERLIN Reds

==============================================================

2005, B.A.B.A. SOUTH-CENTRAL Division, "FINAL" Standings

------W--L---.PCT----TEAMS
-----12---2---.857------WAUPACA Lakemen
-----11---3---.786------SCANDINAVIA Vikings
------9---5---.643------PLOVER Pterodactyles
------8---6---.571------NEW LONDON Merchants
------7---7---.500------MANAWA Spurs
------4--10---.286------OMRO River Rats
------3--11---.214------BERLIN Reds
------2--12---.143------LANARK Lions

==============================================================

2004, B.A.B.A. SOUTH-CENTRAL Division, "FINAL" Standings

------W--L---.PCT----TEAMS
-----13---1---.929------SCANDINAVIA Vikings
-----10---4---.714------PLOVER Pterodactyles
------8---6---.571------NEW LONDON Merchants
------8---6---.571------WAUPACA Lakemen
------7---7---.500------BERLIN Reds
------6---8---.429------MANAWA Spurs
------3--11---.214------WEY-MONT Braves
------1--13---.071------LANARK Lions

==============================================================

--------------------------------------------------------------------------------------------------------------
Jack Sprecher, aka "Jack O' Diamonds"

ALGOMA CITY Baseball Historian,

920-304-2211
--------------------------------------------------------------------------------------------------------------

==============================================================

Venue Information and Directions