LEAGUES, SCHEDULES, STANDINGS, RESULTS

Subscribe to our Newsletter
Back to Previous Page

2018, DOOR COUNTY BASEBALL LEAGUE

Date(s):   5/1/2015 - 9/8/2015
Contact Info:
"Jack's Back Alley" off Third St.
920-558-9414 ~ 920-304-2211
General Information ===============================

2018

DOOR COUNTY BASEBALL LEAGUE,

"The only County league in the state of Wisconson."

===============================

DOOR COUNTY BASEBALL,

SUNDAYS, 1:30pm, on WDOR-910,

or www.wdor.com, with EDDY ALLEN

==============================

DOOR COUNTY BASEBALL LEAGUE,

TEAMS:

KOLBERG Braves, --- MAPLEWOOD Mets,

INSTITUTE Cubs, --- EGG HARBOR Indians,

BAILEY'S HARBOR A's, --- WEST JACKSONPORT Ports,

SISTER BAY Bays, --- WASHINGTON ISLAND Islanders,

==============================

--------------------------------------------------
(Last Updated: July 9th, 2018)
--------------------------------------------------
920-558-9414 ~ 920-304-2211
--------------------------------------------------
(wkrn1240@gmail.com)
--------------------------------------------------

===============================

TEAM, VENUES
_____________________

KOLBERG Braves, Community Park

MAPLEWOOD Mets, Bowman Field

BAILEYS HARBOR A's, Sports Complex

WEST JACKSONPORT Ports, Smokey Bley Field

WASHINGTON ISLAND, Islanders Field

SISTER BAY Bays, Sports Complex

INSITITUTE Cubs, Town Park

EGG HARBOR Indians, Humpty Dumpty Field
_____________________

==============================

==============================

2018, DOOR COUNTY BASEBALL LEAGUE, Standings

TEAMS--------------------------------W--L---.PCT

SISTER BAY Bays---------------------8---1---.888

WEST JACKSONPORT Port------------5---4---.555

EGG HARBOR Indians-----------------7---2---.777

WASHINGTON ISLAND Islanders------6---3---.666

KOLBERG Braves---------------------1---8---.111

MAPLEWOOD Mets--------------------3---9---.333

BAILEYS HARBOR A's-----------------4---5---.444

INSTITUTE Cubs----------------------2---7--.222

[14 Game Season]

-------------------------------------------------------------------------------------------------------------

===================================================

SATURDAY, MAY 12th, 2018

--------------------------------------------------------------
1:30pm, INSTITUTE Cubs, [-100-100-106--- 9-7-2] @ KOLBERG Braves, [-101-000-002---4-6-1] ~~~ "Jack O' Diamons" ~ "Road Game"
~~~~~

Games "3-Stars"

#1 -Kyle Volkman, ITC; ~~ #2-Josh Paul, ITC, ~~
#3- Matt Petersilka, ITC:

(WP-Josh Paul, ITC;) ~~~ (LP-Erine Erickson, KBB:)

[Attn: 80, ~~~ PA, Gilbert Annses,]

[Weather: Sunny, 52 degrres]

[Umpirers: P. Kelly Mike, & B. Meyer La Muiye,]

--------------------------------------------------------------

====================================================

SUNDAY, MAY 13th, 2018 ~ "Opening Day" ~ "Mother's Day"

--------------------------------------------------------------------------------------------------------------
1:30pm, MAPLEWOOD Mets, [-000-011-000---2-4-2] @ WEST JACKSONPORT Ports, [-201-001-02x---6-10-2] ~~~ "Jack O' Diamonds" ~~ "Road Games"

~~~~~

Games, "3-Stars"

#1 - Riley Cordier, WJP: ~~ #2 - Griffin Cole, WJP: ~~ #3 - Alev Schartner, WJP:

(WP-Riley Cordier, WJP) ~~~ (LP-Nick Brauer, MWM)

[Attn: 180, ~~~ PA: ?]

[Weather: Sunny, 61 degrres]

[Umpires: P, ? & B. ?]

--------------------------------------------------------------------------------------------------------------
1:30pm, EGG HARBOR Indians, [-6-] @ WASHINGTON ISLAND Islanders, [-10-]
--------------------------------------------------------------------------------------------------------------
1:30pm, SISTER BAY Bays, [-17-] @ BAILEYS HARBOR A's, [-0-]
--------------------------------------------------------------------------------------------------------------

===============================

SUNDAY, MAY 20th, 2018

--------------------------------------------------------------------------------------------------------------
1:30pm, BAILEYS HARBOR A's, [-4-] @ INSTITUE Cubs, [-12-]
--------------------------------------------------------------------------------------------------------------
1:30pm, WEST JACKSONNPOERT Ports, [-0-] @ EGG HARBOR Indians, [-1-]
--------------------------------------------------------------------------------------------------------------
--------------------------------------------------------------------------------------------------------------

1:30pm, WASHINGTON ISLAND Islanders, [-4-] @ MAPLEWOOD Mets, [-1-] ~~~ "Jack O' Diamonds" ~~ "Road Game"

~~~~~

Games: "3-Stars"

[#1 - Matt Foss, WII ~~ #2 -Ben Geiger, WII ~~ #3 - Cully Kissinger, MWM]

(WP-Matt Foss, WII) ~~~ (LP-Nick Brauer, MWM)

~~~~~

[Attn: 220, ~~ PA, ?]

[Weather: Sunny, 56 degrres]

[Umpiers: P. Phil Ducat ~ B. Keven Brauer]


--------------------------------------------------------------------------------------------------------------
1:30pm, KOLBERG Braves, [-2-] @ SISTER BAY Bays, [-16-]
--------------------------------------------------------------------------------------------------------------

===============================

SUNDAY, MAY 27th, 2018

--------------------------------------------------------------------------------------------------------------
1:30pm, INSTITUTE Cubs, [-2-] @ WEST JACKSONPORT Ports, [-6-]
--------------------------------------------------------------------------------------------------------------
1:30pm, EGG HARBOR Indians, [-9-] @ KOLBERG Braves, [-8-]
--------------------------------------------------------------------------------------------------------------
1:30pm, SISTER BAY Bays, [-5-] @ WASHINGTON ISLAND,Islanders, [-4-]
--------------------------------------------------------------------------------------------------------------
1:30pm, MAPLEWOOD Mets, [-1-] @ BAILEYS HARBOR A's, [-2-]
--------------------------------------------------------------------------------------------------------------

===============================

SUNDAY, JUNE 3rd, 2018

--------------------------------------------------------------------------------------------------------------
1:30pm, WASHINTON ISLAND Islaners, [-12-] @ INSTITUTE Cubs, [-6-]
--------------------------------------------------------------------------------------------------------------
1:30pm, BAILEYS HARBOR A's, [-4-] @ EGG HARBOR Indians, [-2-]
--------------------------------------------------------------------------------------------------------------
1:30pm, WEST JACKSONPORT Ports, [-8-] @ SISTER BAY Bays, [-9-]
--------------------------------------------------------------------------------------------------------------
1:30pm, MAPLEWOOD Mets, [-15-] @ KOLBERG Braves, [-7-]
--------------------------------------------------------------

====================================================

FRIDAY, JUNE 8th, 2018

--------------------------------------------------------------
7:30pm, EGG HARBOR Indians, [-6-] @ INSTITUTE Cubs, [-3-]
--------------------------------------------------------------

==============================================================

SUNDAY, JUNE 10th, 2018

--------------------------------------------------------------------------------------------------------------
1:30pm, KOLBERG Braves, [-0-] @ WEST JACKSONPORT Ports, [-14-]
--------------------------------------------------------------------------------------------------------------
1:30pm, SISTER BAY Bays, [-18-] @ MAPLEWOOD Mets, [-0-]
--------------------------------------------------------------------------------------------------------------
1:30pm, BAILEYS HARBOR A's, [-8-] @ WASHINGTON ISLAND Islanders, [-16-]
--------------------------------------------------------------------------------------------------------------

==============================================================

SUNDAY, JUNE 17th, 2018 --- "Fathers Day"

--------------------------------------------------------------------------------------------------------------
1:30pm, INSTITUTE Cubs, [-3-] @ SISTER BAY Bays, [-19-]
--------------------------------------------------------------------------------------------------------------
1:30pm, WASHINGTON ISLAND Islanders, [-10-] @ WEST JACKSONPORT Ports, [-2-]
--------------------------------------------------------------------------------------------------------------
1:30pm, KOLBERG Braves, [-1-] @ BAILEYS HARBOR A's, [-6-]
--------------------------------------------------------------------------------------------------------------
1:30pm, EGG HARBOR Indians, [-?-] @ MAPLEWOOD Mets, [-?-]
--------------------------------------------------------------------------------------------------------------

==============================================================

SUNDAY, JUNE 24th, 2018

--------------------------------------------------------------------------------------------------------------
1:30pm, SISTER BAY Bays, [-2-] @ EGG HARBOR Indians, [-5-]
--------------------------------------------------------------------------------------------------------------
1:30pm, MAPLEWOOD Mets, [-10-] @ INSTITUTE Cubs, [-2-]
--------------------------------------------------------------------------------------------------------------
1:30pm, WASHINGTON ISLANDS, [-7-] @ KOLBERG Braves, [-1-]
--------------------------------------------------------------------------------------------------------------
1:30pm, WEST JACKSONPORT Ports, [-14-] @ BAILEYS HARBOR A's, [-1-] ~~~ (Note: It Was 14, not 13)
--------------------------------------------------------------------------------------------------------------

=====================================================

FRIDAY, JUNE 29th, 2018

--------------------------------------------------------------
7:30pm, KOLBERG Braves, [-14-] @ INSTITUTE Cubs, [-4-]
--------------------------------------------------------------

==============================================================

SUNDAY, JULY 1st, 2018

--------------------------------------------------------------------------------------------------------------
1:30pm, WEST JACKSONPORT Ports, [-12-] @ MAPLEWOOD Mets, [-4-] ~~~ "Jack O' Diamonds" ~ Road Game'
--------------------------------------------------------------------------------------------------------------
1:30pm, WASHINGTON ISLAND Islanders, [-9-] @ EGG HARBOR Indians, [-13-]
--------------------------------------------------------------------------------------------------------------
1:30pm, BAILEYS HARBOR A's, [-5-] @ SISTER BAY Bays, [-12-]
----------------------------------------------------------------------------------------------------------------------------

==============================================================

SUNDAY, JULY 8th, 2018

--------------------------------------------------------------------------------------------------------------
1:30pm, INSTITUTE Cubs, [-4-] @ BAILEYS HARBOR A's, [-17-]
-------------------------------------------------------------------------------------------------------------
1:30pm, EGG HARBOR Indians, [-6-] @ WEST JACKSONPORT Ports, [-5-]
--------------------------------------------------------------------------------------------------------------
1:30pm, MAPLEWOOD Mets, [-8-] @ WASHINGTON ISLAND Islanders, [-3-]
--------------------------------------------------------------------------------------------------------------
1:30pm, SISTER BAY Bays, [-4-] @ KOLBERG Braves, [-2-]
--------------------------------------------------------------------------------------------------------------

======================================================

FRIDAY, JULY 13th, 2018

-------------------------------------------------------------
7:30pm, WEST JACKSONPORT Ports, [-15-] @ INSTITUTE Cubs, [-7-]
--------------------------------------------------------------

==============================================================

SUNDAY, JULY 15th, 2018

--------------------------------------------------------------------------------------------------------------
1:30pm, KOLBERG Braves, [-6-] @ EGG HARBOR Indians, [-2-]
--------------------------------------------------------------------------------------------------------------
1:30pm, WASHINGTON ISLAND Islanders, [-8-] @ SISTER BAY Bays, [-6-]
--------------------------------------------------------------------------------------------------------------
1:30pm, BAILEYS HARBOR A's, [-2-] @ MAPLEWOOD Mets, [-4-]
--------------------------------------------------------------------------------------------------------------

--------------------------------------------------------------------------------------------------------------

==============================================================

SUNDAY, JULY 22nd, 2018

--------------------------------------------------------------------------------------------------------------
1:30pm, INSTITUTE Cubs, [--] @ WASHINGTON ISLAND Islanders, [--]
--------------------------------------------------------------------------------------------------------------
1:30pm, EGG HARBOR Indians, [--] @ BAILYES HARBOR, A's, [--]
--------------------------------------------------------------------------------------------------------------
1:30pm, SISTER BAY Bays, [--] @ WEST JACKSONPORT Ports, [--]
--------------------------------------------------------------------------------------------------------------
1:30pm, KOLBERG Braves, [--] @ MAPLEWOOD Mets, [--]
--------------------------------------------------------------------------------------------------------------



==============================================================

SUNDAY, JULY 29th, 2018

--------------------------------------------------------------------------------------------------------------
1:30pm, INSTITUTE Cubs, [--] @ EGG HARBOR Indians, [--]
--------------------------------------------------------------------------------------------------------------
1:30pm, WEST JACKSONPORT Ports, [--] @ KOLBERG Braves, [--]
--------------------------------------------------------------------------------------------------------------
1:30pm, MAPLEWOOD Mets, [--] @ SISTER BAY Bays, [--]
--------------------------------------------------------------------------------------------------------------
1:30pm, WASHINGTON ISLAND Islanders, [--] @ BAILEYS HARBOR A'S, [--]
--------------------------------------------------------------------------------------------------------------

==============================================================

SUNDAY, AUGUST 5th, 2018

--------------------------------------------------------------------------------------------------------------
Note: At 12:00pm, EDDY ALLEN, on WDOR-910 & www.wdor.com

------------------------------------------------------------------
1:30pm, SISTER BAY Bays, [--] @ INSTITUTE Cubs, [--]
----------------------------------------------------------------
1:30pm, WEST JACKSONPORT Ports, [--] @ WASHINGTON ISLAND Islanders, [--]
--------------------------------------------------------------------------------------------------------------
1:30pm, BAILEYS HARBOR A's, [--] @ KOLBERG Braves, [--]
--------------------------------------------------------------------------------------------------------------
1:30pm, MAPLEWOOD Mets, [--] @ EGG HARBOR Indians, [--]
--------------------------------------------------------------------------------------------------------------


==============================================================

SUNDAY, AUGUST 12th, 2018

--------------------------------------------------------------------------------------------------------------
1:30pm, INSTITUTE Cubs, [--] @ MAPLEWOOD Mets, [--]
--------------------------------------------------------------------------------------------------------------
1:30pm, EGG HARBOR Indians, [--] @ SISTER BAY Bays, [--]
--------------------------------------------------------------------------------------------------------------
1:30pm, KOLBERG Braves, [--] @ WASHINGTON ISLAND Islanders, [--]
--------------------------------------------------------------------------------------------------------------
1:30pm, BAILEYS HARBOR A's, [--] @ WEST JACKSONPORT Ports, [--]
--------------------------------------------------------------------------------------------------------------

==============================================================

SUNDAY, AUGUST 19th, 2018

"PLAYOFFS"

--------------------------------------------------------------------------------------------------------------
1:30pm,
--------------------------------------------------------------------------------------------------------------

==============================================================

___________________

End of Regular Season
___________________

==============================================================

SUNDAY, AUGUST 26th, 2018

-------------------------------------------------------------------------------------------------------------


==============================================================

SUNDAY, SEPTEMBER 2rd, 2018

-------------------------------------------------------------------
--------------------------------------------------------------------------------------------------------------


==============================================================

DOOR COUNTY BASEBALL LEAGUE, "HISTORY"

==============================================================

DOOR COUNTY BASEBALL LEAGUE,

2016, D.C.L. "FINAL" Standings

------W--L---.PCT----TEAMS
-----12---2---.857------EGG HARBOR Indians
-----12---2---.875------SISTER BAY Bays
-----10---4---.714------KOLBERG Braves
------6---8---.429------MAPLEWOOD Mets
------6---8---.429------WEST JACKSONPORT Ports
------6---8---.429------WASHINGTON ISLAND Islanders
------4--10---.286------MAPLEWOOD Mets
------0--14---.000------BAILEY'S HARBOR A's


==============================================================

DOOR COUNTY BASEBALL LEAGUE,

2015, D.C.L. "FINAL" Standings

------W--L---.PCT----TEAMS
-----14---0--1.000------SISTER BAY Bays
------9---5----.643------WEST JACKSONPORT Ports
------7---7---.500-------KOLBERG Braves
------7---7---.500-------EGG HARBOR Indians
------6---8---.429-------MAPLEWOOD Mets
------6---8---.429-------WASHINGTON ISLAND Islanders
------5---9---.357-------INSTITUTE Cubs
------2--12---.143-------BAILEYS HARBOR A's

==============================================================

DOOR COUNTY BASEBALL LEAGUE,

2014, D.C.L. "FINAL" Standings

------W--L---.PCT----TEAMS
-----11---3---.786------SISTER BAY Bays
-----10---4---.714------INSTITUTE Cubs
------8---6---.571------WEST JACKSONPORT Ports
------8---6---.571------KOLBERG Braves
------6---8---.429------EGG HARBOR Indians
------6---8---.429------MAPLEWOOD Mets
------6---8---.429------WASHINGTON ISLAND Islanders
------1--13---.071------BAILEYS HARBOR A's

--------------------------------------------------------------------------------------------------------------

==============================================================

2013, DOOR COUNTY League, "FINAL" Standings

------W--L---.PCT----TEAMS
-----12---2----.857----EGG HARBOR Indians
-----11---3----.786----WEST JACKSONORT Ports
------9---5----.643----SISTER BAY Bays
------8---6----.571----KOLBERG Braves
------6---8----.429----WASHINGTON ISLAND Islanders
------5---9----.357----INSTITUTE Cubs
------4--10----.286----MAPLEWOOD Mets
------1--13----.071----BAILEYS HARBOR A's

==============================================================

2012, DOOR COUNTY League, "FINAL" Standings

------W--L---.PCT----TEAMS
-----13---1---.929-----EGG HARBOR Indians
-----10---4---.714-----KOLBERG Braves
-----10---4---.714-----SISTER BAY Bays
------7---7---.500-----WEST JACKSONPORT Ports
------6---8---.429-----WASHINGTON ISLAND Islanders
------4--10---.286-----BAILEYS HARBOR A's
------3--11---.214-----INSTITUTE Cubs
------3--11---.214-----MAPLEWOOD Mets

==============================================================

2011, DOOR COUNTY League, "FINAL" Standings

------W--L---.PCT----TEAMS
-----13---1---.929-----EGG HARBOR Indians
-----11---3---.786-----KOLBERG Braves
------9---5---.643-----SISTER BAY Bays
------7---7---.500-----WASHINGTON ISLAND Islanders
------5---9---.357-----INSTITUTE Cubs
------4--10---.231-----MAPLEWOOD Mets
------4--10---.231-----WEST JACKSONPORT Ports
------3--11---.214-----BAILEYS HARBOR A's

==============================================================

2010, DOOR COUNTY League, "FINAL" Standings

------W--L---.PCT----TEAMS
-----13---1---.929-----KOLBERG Braves
------8---6---.571-----EGG HARBOR Indians
------8---6---.571-----WEST JACKSONPORT Ports
------7---7---.500-----MAPLEWOOD Mets
------7---7---.500-----WASHINGTON ISLAND Islanders
------5---9---.357-----INSTITUTE Cubs
------5---9---.357-----SISTER BAY Bays
------3--11---.214-----BAILEYS HARBOR Athletics

==============================================================

2009, DOOR COUNTY League, "FINAL" Standings

------W--L---.PCT----TEAMS
-----11---3---.778-----EGG HARBOR Indians
------9---5---.645-----KOLBERG Braves
------9---5---.645-----WEST JACKSONPORT Ports
------8---6---.556-----WASHINGTON ISLAND Islanders
------8---6---.556-----MAPLEWOOD Mets
------6---8---.444-----INSTITUTE Cubs
------5---9---.385-----SISTER BAY Bays
------0--14---.000-----BAILEYS HARBOR Athletics

==============================================================

2008, DOOR COUNTY League, "FINAL" Standings

------W--L---.PCT----TEAMS
-----14---0--1.000-----KOLBERG Braves
-----10---4---.714-----WEST JACKSONPORT Ports
------8---6---.571-----WASHINGTON ISLAND Islanders
------7---7---.500-----INSTITUTE Cubs
------6---8---.429-----MAPLEWOOD Mets
------5---9---.337-----BAILEYS HARBOR Athletics
------5---9---.337-----EGG HARBOR Indians
------1--13---.077-----SISTER BAY Bays

==============================================================

2007, DOOR COUNTY League, "FINAL" Standings

------W--L---.PCT----TEAMS
-----12---2---.857-----KOLBERG Braves
-----11---3---.786-----WEST JACKSONPORT Ports
------8---6---.571-----MAPLEWOOD Mets
------7---7---.500-----BAILEYS HARBOR Athletics
------7---7---.500-----INSTITUTE Cubs
------5---9---.357-----EGG HARBOR Indians
------3--11---.214-----WASHINGTON ISLAND Islanders
------3--11---.214-----SISTER BAY Bays

==============================================================

2006, DOOR COUNTY League, "FINAL" Standings

------W--L---.PCT----TEAMS
-----11---3---.786-----WEST JACKSONPORT Ports
-----11---3---.786-----KOLBERG Braves
------9---5---.643-----MAPLEWOOD Mets
------7---7---.500-----WASHINGTON ISLAND Islanders
------5---9---.357-----EGG HARBOR Indians
------5---9---.357-----BAILEYS HARBOR Athletics
------4--10---.286-----SISTER BAY Bays
------4--10---.286-----INSTITUTE Cubs

==============================================================

2005, DOOR COUNTY League, "FINAL" Standings

------W--L---.PCT----TEAMS
-----11---3---.786-----WEST JACKSONPORT Ports
-----10---4---.714-----MAPLEWOOD Mets
------8---6---.571-----KOLBERG Braves
------7---7---.500-----EGG HARBOR Indians
------7---7---.500-----WASHINGTON ISLAND Islanders
------6---8---.429-----BAILEYS HARBOR Athletics
------4--10---.286-----INSTITUTE Cubs
------3--11---.214-----SISTER BAY Bays

==============================================================

2004, DOOR COUNTY League, "FINAL" Standings

------W--L---.PCT----TEAMS
-----10---4---.714-----INSTITUTE Cubs
------9---5---.643-----WEST JACKSONPORT Ports
------9---5---.643-----MAPLEWOOD Mets
------9---5---.643-----KOLBERG Braves
------6---8---.429-----EGG HARBOR Indians
------5---9---.357-----BAILEYS HARBOR Athletics
------4--10---.286-----WASHINGTON ISLAND Islanders
------4--10---.286-----SISTER BAY Bays

==============================================================

2003, DOOR COUNTY League, "FINAL" Standings

------W--L---.PCT----TEAMS
-----12---2---.857-----WEST JACKSONPORT Ports
------9---5---.643-----EGG HARBOR Indians
------8---6---.571-----KOLBERG Braves
------8---6---.571-----INSTITUTE Cubs
------8---6---.571-----MAPLEWOOD Mets
------6---8---.429-----WASHINGTON ISLAND Islanders
------5---9---.357-----SISTER BAY Bays
------0--14---.000-----BAILEYS HARBOR A's

==============================================================

DOOR COUNTY BASEBALL CHAMPIONSHIPS ~ "HISTORY"

-------REGULAR SEASON--------GRAND CHAMPIONS

2016 - EGG HARBOR-------------------Sister Bay
2015 - Sister bay-----------------------Sister Bay
2014 - Sister Bay--------------------------Kolberg
2013 - Egg Harbor-------------------------Kolberg
2012 - Egg Harbor-------------------------Kolberg
2011 - Egg Harbor----------------------Sister Bay
2010 - Kolberg-------------------------Egg Harbor
2009 - Egg Harbor-------------------------Kolberg
2008 - Kolberg----------------------------Kolberg
2007 - Kolberg----------------------------Kolberg
2006 - Kolberg--------------------------Maplewood
2005 - West Jacksonport-----------------Maplewood
2004 - Institute------------------------Maplewood
2003 - West Jacksonport----------West Jacksonport
2002 - West Jacksonport-------------------Kolberg
2001 - Washington Island--------Washington Island
2000 - Maplewood-----------------------Egg Harbor
1999 - Institute-----------------------Egg Harbor
1998 - West Jacksonport------------Baileys Harbor
1997 - Kolberg--------------------------Institute
1996 - West Jacksonport-------------------Kolberg
1995 - Maplewood--------------------------Kolberg
1994 - Sister Bay-----------------------Institute
1993 - Sister Bay-----------------------Institute
1992 - Maplewood------------------------Maplewood
1991 - Sister Bay-----------------------Maplewood
1990 - Sister Bay-----------------------Maplewood
1989 - Sister Bay-----------------------Maplewood
1988 - Sister Bay----------------------Sister Bay
1987 - Egg Harbor----------------West Jacksonport
1986 - West Jacksonport----------------Sister Bay
1985 - Sister Bay----------------------Sister Bay
1984 - West Jacksonport----------------Sister Bay
1983 - Sister Bay----------------------Sister Bay
1982 - Baileys Harbor-------------------Maplewood
1981 - Sister Bay----------------------Sister Bay
1980 - West Jacksonport-----------------Maplewood
1979 - Maplewood-----------------------Egg Harbor
1978 - Maplewood-----------------------Sister Bay
1977 - Sister Bay----------------------Sister Bay
1976 - Maplewood------------------------Maplewood
1975 - Sister Bay---------------Washington Island
1974 - West Jacksonport----------------Sister Bay
1973 - West Jacksonport----------West Jacksonport
1972 - West Jacksonport-----------------Institute
1971 - Institute----------------Washington Island
1970 - West Jacksonport----------West Jacksonport
1969 - Institute-----------------------Sister Bay
1968 - Institute-----------------West Jacksonport
1967 - Kolberg--------------------------Institute
1966 - Kolberg----------------------------Kolberg
1965 - Egg Harbor----------------West Jacksonport
1964 - North--West Jacksonport
------ South--Maplewood----------West Jacksonport
1963 - North--West Jacksonport---West Jacksonport
------ South--Institute
1962 - North--Egg Harbor
------ South--Kolberg------------------Egg Harbor
1961 - North--West Jacksonport
------ South--Brussels-------------------Brussels
1960 - North--West Jacksonport
------ South--Sturgeon Bay-------West Jacksonport
1959 - Brussels--------------------------Brussels
1958 - Brussels--------------------------Brussels
1957 - West Jacksonport---------Washington Island
1956 - West Jacksonport----------------Egg Harbor
1955 - Washington Island---------West Jacksonport
1954 - Top Of The Thumb---------Washington Island
1953 - Top Of The Thumb------------Baileys Harbor
1952 - Little Sturgeon-----------------Egg Harbor
1951 - Washington Island--------Washington Island

(Thanks to Kenny Schaefer for this DCL History list.)

--------------------------------------------------------------------------------------------------------------
Jack Sprecher, aka "Jack O' Diamonds"

Algoma City Baseball Historian,

www.leaguelineup.com/algomaguins,

920-304-2211
--------------------------------------------------------------------------------------------------------------
"Have Game Will Travel"
-
"It all adds up to be 16 baseball seasons,

and a total of 621 games, and a total of 160

teams, with a average of 39 games each year."

Thank all who made it all fun. Jack
--------------------------------------------------------------------------------------------------------------

==============================================================

Venue Information and Directions