LEAGUES, SCHEDULES, STANDINGS, RESULTS

Subscribe to our Newsletter
Back to Previous Page

2018, W.B.A. INDEPENDENT BASEBALL LEAGUE

Date(s):   5/1/2015 - 9/3/2015
Contact Info:
"Jack, Back Alley" off Third St.
920-558-9414 ~ 920-304-2211
General Information .
==============================================================

2018,

INDEPENDENT BASEBALL LEAGUE,

of the

WISCONSIN BASEBALL ASSOCIATION,

==============================================================

--------------------------------------------------------------------------------------------------------------
(Last Updated: May 27th, 2018)
-------------------------------------------------------
(Jack, at 920-558-9414) ~ (920-304-2211)
-------------------------------------------------------
(wkrn1240@gmail.com)
--------------------------------------------------------------------------------------------------------------

==============================================================

2018,

INDEPENDENT BASEBALL LEAGUE,

2017, TEAMS,

HAUGEN Knights

HAYWARD Hawks

SPOONER Cardinals

TWIN PORTS North Stars,

BRILL Millers

LUCK Renegades

MINONG/SOLON SPRINGS

________________________________

Team, VENUES:
-
TWIN PORTS, Ted Whereatt Field, UW Superior

SPOONER, Oid Merchants Park

HAUGEN, The Ball Park

LUCK, High School Field

BRILL, Havelka Field

HAYWARD, Larry Somerville Field

MINONG'SOLON SPRING

________________________________



"INDY" 2018,

==============================================================

SUNDAY, MAY 13th, 2018

-------------------------------------------------------------------
1:00pm, HAYWARD Hawks, [-10-] @ MINONG Ravens, [-2-]
-------------------------------------------------------------------
1:00pm, HAUGEN Knights, [-10-] @ BRILL Millers, [-6-]
--------------------------------------------------------------

===============================================================

SUNDAY, MAY 20th, 2018

------------------------------------------------------------------
1:00pm, MINONG [-1-] @ SPOONER Cardinals, [-16-]
--------------------------------------------------------------
1:00pm, BRILL Millers, [--] @ LUCK Renegades, [--]
--------------------------------------------------------------
1:00pm, TWIN PORTS North Stars, [--] @ HAUGEN Kninhgs,
--------------------------------------------------------------

===============================================================

SUNDAY, MAY 27th, 2018

------------------------------------------------------------------
1:00pm, HAYWARD Hawks, [--] @ BRILL Millers, [--]
------------------------------------------------------------------
1:00pm, SPOONER Cardinals, [--] @ LUCK Renegades, [--]
--------------------------------------------------------------

===============================================================

SATURDAY, JUNE 2th, 2018

-------------------------------------------------------------------
1:00pm, BRILL Millers, [--] @ SPOONER Cardinals, [--]
-------------------------------------------------------------------

===============================================================

SUNDAY, JUNE 3rd, 2018

------------------------------------------------------------------
1:00pm, HAYWARD Hawks, [--] @ TWIN PORTS North Stars, [--]
------------------------------------------------------------------
1:00pm, LUCK Renegades, [--] @ HAUGEN Knights, [--]
--------------------------------------------------------------

===============================================================

SATURDAY, JUNE 9th, 2018

-------------------------------------------------------------------
1:00pm, SPOONER Cardinals, [-4-] @ TWIN PORTS North Stars, [-2-]
-------------------------------------------------------------------

===============================================================

SUNDAY, JUNE 10th, 2018

-------------------------------------------------------------------
1:00pm, HAYWARD Hawks, [--] @ HAUGEN Knights, [--]
------------------------------------------------------------------
1:00pm, BRILL Millers, [--] @ TWIN PORTS North Stars, [--]
--------------------------------------------------------------

===============================================================

FRIDAY, JUNE 15th, 2018

------------------------------------------------------------------
7:30pm, SPOONER Cardinals, [--] @ HAYWARD Hawks, [--]
------------------------------------------------------------------

===============================================================

SATURDAY, JUNE 16th, 2018

1:00pm, BRILL Millers, [--] @ SOLON SPRINGS, [--]
------------------------------------------------------------------
1:00pm, HAUGEN Knigts, [--] SPOONER Cardinals, [--]
-------------------------------------------------------------------
7:30pm, LUCK Renegades, [--] @ HAYWARD Hawks, [--]
-------------------------------------------------------------------

===============================================================

SUNDAY, JUNE 17th, 2018

-------------------------------------------------------------------
1:00pm, HAUGEN Knights, [--] @ SOLON SPRINGS, [--]
-------------------------------------------------------------------

===============================================================

SATURDAY, JUNE 21st, 2018

------------------------------------------------------------------
7:30pm,
------------------------------------------------------------------

===============================================================

SATURDAY, JUNE 23rd, 2018

------------------------------------------------------------------
7:30pm, BRILL Millers, [--] @ HAUGEN Knights, [--]
-------------------------------------------------------------------
7:30pm, MINONG Ravens, [--] @ HAYWARD Hawks, [--]
-------------------------------------------------------------------
7:00pm, TWIN PORTS North Stars, [--] @ SPOONER Cardinals, [--]
-------------------------------------------------------------------

===============================================================

SUNDAY, JUNE 24th, 2018

-----------------------------------------------------------------
1:00pm, SPOONER Cardinals, [--] @ MINONG Ravens, [--]
-----------------------------------------------------------------
1:00pm, LUCK Renegades, [--] @ BRILL Millers, [--]
------------------------------------------------------------------

-------------------------------------------------------------------7:30pm,
------------------------------------------------------------------

===============================================================

SATURDAY, JUNE 30th, 2018

-------------------------------------------------------------------
7:30pm, BRILL Millers, [--] @ HAYWARD Hawks, [--]
-------------------------------------------------------------------

=============================================================

SUNDAY, JULY 1st, 2018

-------------------------------------------------------------------
1:00pm, LUCK Renegades, [--] @ SPOONER Cardinals, [--]
------------------------------------------------------------------

===============================================================

SATURDAY, JULY 7th, 2018

------------------------------------------------------------------
1:00pm, SPOONER Cardinals, [--] @ BRILL Millers, [--]
-------------------------------------------------------------------
7:30pm, TWIN PORTS North Stars, [--] @ HAYWARD Hawks, [--]
------------------------------------------------------------------

================================================================

SUNDAY, JULY 8th, 2018

------------------------------------------------------------------
1:00pm, TWIN PORTS North Stars, [--] @ BRILL Millers, [--]
-----------------------------------------------------------------

================================================================

SATURDAY, JULY 14th, 2018

-------------------------------------------------------------------
7:30pm, HAUGEN Knights, [--] @ HAYWARD Hawks, [--]
-------------------------------------------------------------------

================================================================

SUNDAY, JUNY 15th, 2018

-------------------------------------------------------------------
1:00pm, HAYWARD Hawks, [--] @ LUCK Renegades, [--]
-------------------------------------------------------------------
1:00pm, SPOONER Cardinals, [--] @ HAUGEN Knights, [--]
-------------------------------------------------------------------
1:00pm, SOLON SPRINGS, [--] @ BRILL Millers, [--]
-------------------------------------------------------------------

================================================================

SATURDAY, JULY 21st, 2018

-------------------------------------------------------------------
7:30pm, HAYWARD Hawks, [--] @ SPOONER Cardinals, [--]
-------------------------------------------------------------------

================================================================

FRIDAY, AUGUST 3rd, 2018

-------------------------------------------------------------------
7:30pm, "Indy" League Tournament
-------------------------------------------------------------------

=================================================================

SATURDAY, AUGUST 4th, 2018

-------------------------------------------------------------------
10:30am, "Indy" League Tournament
------------------------------------------------------------------

=================================================================





















==============================================================

2017, INDEPENDENT BASEBALL LEAGUE, Standings

------W--L---.PCT----TEAMS
-----14---1---.933--------SPOONER Cardinals
-----12---2---.857--------HAUGEN Knight
------9---3---.750--------BRILL Millers
------6---7---.462--------HAYWARD Hawks
------3---5---.376--------TWIN PORTS North Stars
------4---9---.308--------BRUCE Belters
------3---9---.250--------CUMBERLAND Istanders
------2--10---.167--------TONY Hayshakers
------1---8---.111--------LUCK Renegades

______________________

End of Regular Season
______________________


==============================================================

INDEPENDENT BASEBALL LEAGUE, "HISTORY"

==============================================================

2016, INDEPENDENT League, "FINAL" Standings
____________________

-----W--L---.PCT----TEAMS

------13---1---.929------HAYWARD Hawks
------11---3---.786------EAU CLAIRE Cavaliers
------11---3---.786------BRILL Millers
------10---4---.714------HAUGEN Knights
-------9---5---.643------TWIN PORTS North Stars
-------9---5---.643------SPOONER Cardinals
-------4--10---.286------CUMBERLAND Islanders
-------2--12---.143------LUCK Renegades
-------1--13---.071------TONY Hayshakers
-------0--14---.000------BRUCE Belters

==============================================================

2015, INDEPENDENT League, "FINAL" Standings
___________________

------W--L---.PCT----TEAMS
-----12---2---.857-------SPOONER Cardinals
-----12---2---.857-------HAUGEN Knights
-----12---2---.857-------EAU CLAIRE Cavaliers
-----11---3---.786-------BRILL Millers
-----11---3---.786-------TWIN PORTS North Stars
------6---8---.429-------CUMBERLAND Islanders
------4--10---.286-------HAUGEN Hornets
------4--10---.286-------HAYWARD Hawks
------4--10---.286-------TONY Hayshakers
------3---9---.250--------GRANTSBURG Honkers
------2--10---.167-------BRUCE Belters
------0--12---.000-------LUCK Renegades

==============================================================

2014, INDEPENDENT League, "FINAL" Standings
___________________
North/East Division

------W--L---.PCT----TEAMS
------9---3---.750--------BRILL Millers
------8---4---.667--------CUMBERLAND Islanders
------6---6---.500--------HAYWARD Hawks
------6---6---.500--------HAUGEN Hornets
___________________
South/West Division

------W--L---.PCT----TEAMS
------9---3---.750--------HAUGEN Knights
------8---4---.667--------SPOONER Cardinals
------4---8---.333--------GRANTSBURG Honkers
------2---8---.200--------BRUCE Belters
------0--10---.000--------LUCK Renegades

==============================================================

2013, INDEPENDENT League, "FINAL" Standings
__________________
North/East Division

------W--L---.PCT----TEAMS
------8---4---.667--------BRILL Millers
------6---6---.500--------HAUGEN Hornets
------5---7---.417--------HAYWARD Hawks
------2--10---.167--------CUMBERLAND Islanders
__________________
South/West Division

------W--L---.PCT----TEAMS
-----12---0--1.000-------GRANTSBURG Honkers
-----10---2---.833--------HAUGEN Knights
------6---6---.500--------BRUCE Belters
------5---7---.417--------SPOONER Cardinals
------0--12---.000--------LUCK Renegades

2013, W.B.A. Grand Champions, BRILL Millers

==============================================================

2012, INDEPENDENT League, "FINAL" Standings
__________________
North/East Division

------W--L---.PCT----TEAMS
-----11---2---.846--------BRILL Millers
------9---4---.692--------HAYWARD Hawks
------8---5---.615--------CUMBERLAND Islanders
------4---9---.308--------HAUGEN Hornets
------0--13---.000--------SEELEY Loggers
__________________
South/West Division

------W--L---.PCT----TEAMS
-----11---2---.846--------HAUGEN Knights
------8---5---.615--------SPOONER Cardinals
------7---6---.538--------BRUCE Belters
------6---7---.462--------GRANTSBURG Honkers
------1--12---.077--------LUCK Renegades

==============================================================

2011, INDEPENDENT League, "FINAL" Standings
__________________
North/East Division

------W--L---.PCT----TEAMS
-----12---4---.750--------SPOONER Cardinals
-----11---5---.687--------HAYWARD Hawks
------9---7---.562--------HAUGEN Hornets
------6---9---.400--------SEELEY Loggers
------5--10---.333--------CUMBERLAND Islanders
------4--12---.250--------EXELAND Bandits
___________________
South/West Division

------W--L---.PCT----TEAMS
-----15---1---.937--------BRILL Millers
-----13---3---.812--------HAUGEN Knights
-----10---6---.625--------GRANTSBURG Honkers
------6--10---.375--------STANBERRY Giants
------3--13---.187--------BRUCE Belters
------1--15---.062--------SIREN Steelers

==============================================================

2010, INDEPENDENT League, "FINAL" Standings
___________________
North/East Division

------W--L---.PCT----TEAMS
-----14---2---.875--------HAUGEN Knights
-----10---6---.625--------BRILL Millers
------9---7---.562--------HAYWARD Hawks
------8---8---.500--------STANBERRY Giants
------7---9---.438--------BRUCE Belters
------0--16---.000--------SEELEY Mud Puppies
___________________
South/West Division

------W--L---.PCT----TEAMS
-----12---4---.750--------HAUGEN Hornets
-----12---4---.750--------SPOONER Cardinals
------9---7---.562---------ST. CROIX Ravens
------9---7---.562---------CUMBERLAND Islanders
------5--11---.313---------GRANTSBURG Honkers
------1--15---.062---------SIREN Steelers

==============================================================

2009, INDEPENDENT League, "FINAL" Standings
___________________
North/East Division

------W--L---.PCT----TEAMS
-----15---1---.937-----HAUGEN Knights
-----11---5---.687-----BRILL Millers
------6--10---.375-----BRUCE Belters
------6--10---.375-----STANBERRY Giants
------5--11---.312-----HAYWARD Hawks
------4--12---.250-----SEELEY Mud Puppies
___________________
South/West Division

------W--L---.PCT----TEAMS
-----12---4---.750-----HAUGEN Hornets
-----10---6---.625-----SPOONER Cardinals
-----10---6---.625-----ST. CROIX Ravens
-----10---6---.625-----GRANTSBURG Honkers
------7---9---.438-----CUMBERLAND Islanders
------0--16---.000-----SIREN Steelers

==============================================================

2008, INDEPENDENT League, "FINAL" Standings
___________________
North/East Division

------W--L---.PCT----TEAMS
-----15---1---.938-----BRILL Millers
-----14---2---.875-----HAUGEN Knights
------8---8---.500-----ST. CROIX Ravens
------7---9---.438-----HAYWARD Hawks
------6--10---.375-----STANBERRY Giants
------3--13---.188-----SEELEY Mud Puppies
___________________
South/West Division

------W--L---.PCT----TEAMS
-----13---3---.800-----HAUGEN Hornets
-----10---6---.571-----CUMBERLAND Islanders
------9---7---.563-----SPOONER Cardinals
------8---8---.500-----GRANTSBURG Honkers
------2--14---.125-----WEBSTER Orioles
------1--15---.063-----SIREN Steelers

==============================================================

2007, INDEPENDENT League, "FINAL" Standings

------W--L---.PCT----TEAMS
-----11---1---.917-----HAUGEN Knights
-----10---2---.833-----BRILL Millers
------9---3---.750-----ST. CROIX Ravens
------8---4---.667-----HAUGEN Hornets
------7---5---.583-----HAYWARD Hawks
------7---5---.583-----CUMBERLAND Islamders
------7---5---.583-----GRANTSBURG Honkers
------6---6---.500-----STANBERRY Giants
------5---7---.417-----WEYERHAUEUSER Black Hens
------5---7---.417-----SPOONER Cardinals
------2--10---.167-----SEELEY Mud Puppies
------1--11---.083-----WEBSTER Orioles
------0--12---.000-----SIREN Steelers

==============================================================

2006, INDEPENDENT League, "FINAL" Standings

------W--L---.PCT----TEAMS
-----13---3---.813-----GRANSBURG Honkers
-----11---4---.733-----BRILL Millers
-----11---5---.688-----HAYWARD Hawks
-----11---5---.688-----HAUGEN Hornets
------9---6---.600-----HAUGEN Knights
------9---7---.563-----WEBSTER Orioles
------8---8---.500-----ST. CROIX Ravens
------7---9---.438-----SPOONER Cardinals
------6---9---.400-----CUMBERLAND Islanders
------6---9---.400-----WEYERHAEUSER Black Hens
------3--12---.200-----STANBERRY Giants
------0--15---.000-----SEELEY Mud Puppies

==============================================================

2005, INDEPENDENT League, "FINAL" Standings

------W--L---.PCT----TEAMS
-----11---3---.786-----HAUGEN Hornets
-----11---3---.786-----BRILL Millers
-----10---4---.714-----GRANTSBURG Honkers
------7---7---.500-----HAUGEN Knights
------6---8---.429-----WEYERHAEUSER Black Hens
------6---8---.429-----WEBSTER Orioles
------5---9---.357-----CUMBERLAND Islanders
------5---9---.357-----SPOONER Cardinals
------2--12---.143-----SEELEY Mud Puppies

==============================================================

2004, INDEPENDENT League, "FINAL" Standings

------W--L---.PCT----TEAMS
-----12---2---.857-----BRILL Millers
-----12---2---.857-----HAUGEN Hornets
------8---6---.571-----SPOONER Cardinals
------7---7---.500-----WEYERHAEUSER Black Hens
------5---9---.357-----CUMBERLAND Islanders
------5---9---.357-----HAUGEN Knights
------4--10---.286-----GRANTSBURG Honkers
------3--11---.214-----SEELEY Mud Puppies

==============================================================

2003, INDEPENDENT League, "FINAL" Standings

------W--L---.PCT----TEAMS
------8---3---.727-----WEYERHAEUSER Black Hens
------7---3---.700-----HAUGEN Hornets
------6---5---.545-----BRILL Millers
------5---5---.500-----STANBERRY Giants
------5---5---.500-----GRANTSBURG Honkers
------5---5---.500-----HAUGEN Knights
------4---7---.364-----CUMBERLAND Islanders
------2---9---.182-----SPOONER Cardinals
------0---2---.000-----TONY Hayshakers +

+ Tony drop out after two games.

==============================================================

2002, INDEPENDENT League, "FINAL" Standings

------W--L---.PCT----TEAMS

[Not Available, Need Your HELP!]

(Jack, at 920-304-2211)

==============================================================

2001, INDEPENDENT League, "FINAL" Standings

------W--L---.PCT----TEAMS
-----11---3---.768-----BRILL Millers
-----11---3---.768-----TONY Hayshakers
-----10---4---.714-----STANBERRY Giants
------9---5---.643-----HAUGEN Hornets
------5---9---.357-----SPOONER Cardinals
------4---9---.308-----HAUGEN Knights
------3--11---.214-----WEYERHAEUSER Black Hens
------2--11---.154-----GRANTSBURG Honkers

==============================================================

2000, INDEPENDENT League, "FINAL" Standings

------W--L---.PCT----TEAMS
------8---1---.889-----STANBERRY Giants
------7---3---.700-----HAUGEN Hornets
------5---5---.500-----BRILL Millers
------5---5---.500-----HAUGEN Knights
------5---5---.500-----WEYERHAEUSER Black Hens
------4---5---.444-----SPOONER Cardinals
------4---6---.400-----TONY Hayshakers
------1---9---.100-----GRANTSBURG Honkers

==============================================================

---------------------------------------------------------------------------------------------------------------------------------------------------------------------
Jack Sprecher, aka "Jack O' Diamonds"

ALGOMA CITY Baseball Historian,

"101 Years of ALGOMA BASEBALL"

www.leaguelineup.com/algomaguins,

920-304-2211
------------------------------------------------------
"Have Game Will Travel"
-
It all adds up to be 16 baseball seasons,

and a total of 621 games,

with a average of 39 games each year."

Thanks all who made it all fun. Jack
--------------------------------------------------------------------------------------------------------------

==============================================================

Venue Information and Directions